  0
SECTION
  2
HEADER
  9
$ACADVER
  1
AC1015
  9
$ACADMAINTVER
 70
     6
  9
$DWGCODEPAGE
  3
ANSI_1252
  9
$INSBASE
 10
0.0
 20
0.0
 30
0.0
  9
$EXTMIN
 10
275177.2999999998
 20
5042262.800000001
 30
0.0
  9
$EXTMAX
 10
300325.4550000001
 20
5062115.286599999
 30
0.0
  9
$LIMMIN
 10
0.0
 20
0.0
  9
$LIMMAX
 10
12.0
 20
9.0
  9
$ORTHOMODE
 70
     0
  9
$REGENMODE
 70
     1
  9
$FILLMODE
 70
     1
  9
$QTEXTMODE
 70
     0
  9
$MIRRTEXT
 70
     1
  9
$LTSCALE
 40
1.0
  9
$ATTMODE
 70
     1
  9
$TEXTSIZE
 40
0.2
  9
$TRACEWID
 40
0.05
  9
$TEXTSTYLE
  7
Standard
  9
$CLAYER
  8
0
  9
$CELTYPE
  6
ByLayer
  9
$CECOLOR
 62
   256
  9
$CELTSCALE
 40
1.0
  9
$DISPSILH
 70
     0
  9
$DIMSCALE
 40
1.0
  9
$DIMASZ
 40
0.18
  9
$DIMEXO
 40
0.0625
  9
$DIMDLI
 40
0.38
  9
$DIMRND
 40
0.0
  9
$DIMDLE
 40
0.0
  9
$DIMEXE
 40
0.18
  9
$DIMTP
 40
0.0
  9
$DIMTM
 40
0.0
  9
$DIMTXT
 40
0.18
  9
$DIMCEN
 40
0.09
  9
$DIMTSZ
 40
0.0
  9
$DIMTOL
 70
     0
  9
$DIMLIM
 70
     0
  9
$DIMTIH
 70
     1
  9
$DIMTOH
 70
     1
  9
$DIMSE1
 70
     0
  9
$DIMSE2
 70
     0
  9
$DIMTAD
 70
     0
  9
$DIMZIN
 70
     0
  9
$DIMBLK
  1

  9
$DIMASO
 70
     1
  9
$DIMSHO
 70
     1
  9
$DIMPOST
  1

  9
$DIMAPOST
  1

  9
$DIMALT
 70
     0
  9
$DIMALTD
 70
     2
  9
$DIMALTF
 40
25.4
  9
$DIMLFAC
 40
1.0
  9
$DIMTOFL
 70
     0
  9
$DIMTVP
 40
0.0
  9
$DIMTIX
 70
     0
  9
$DIMSOXD
 70
     0
  9
$DIMSAH
 70
     0
  9
$DIMBLK1
  1

  9
$DIMBLK2
  1

  9
$DIMSTYLE
  2
Standard
  9
$DIMCLRD
 70
     0
  9
$DIMCLRE
 70
     0
  9
$DIMCLRT
 70
     0
  9
$DIMTFAC
 40
1.0
  9
$DIMGAP
 40
0.09
  9
$DIMJUST
 70
     0
  9
$DIMSD1
 70
     0
  9
$DIMSD2
 70
     0
  9
$DIMTOLJ
 70
     1
  9
$DIMTZIN
 70
     0
  9
$DIMALTZ
 70
     0
  9
$DIMALTTZ
 70
     0
  9
$DIMUPT
 70
     0
  9
$DIMDEC
 70
     4
  9
$DIMTDEC
 70
     4
  9
$DIMALTU
 70
     2
  9
$DIMALTTD
 70
     2
  9
$DIMTXSTY
  7
Standard
  9
$DIMAUNIT
 70
     0
  9
$DIMADEC
 70
     0
  9
$DIMALTRND
 40
0.0
  9
$DIMAZIN
 70
     0
  9
$DIMDSEP
 70
    46
  9
$DIMATFIT
 70
     3
  9
$DIMFRAC
 70
     0
  9
$DIMLDRBLK
  1

  9
$DIMLUNIT
 70
     2
  9
$DIMLWD
 70
    -2
  9
$DIMLWE
 70
    -2
  9
$DIMTMOVE
 70
     0
  9
$LUNITS
 70
     2
  9
$LUPREC
 70
     4
  9
$SKETCHINC
 40
0.1
  9
$FILLETRAD
 40
0.5
  9
$AUNITS
 70
     0
  9
$AUPREC
 70
     0
  9
$MENU
  1
.
  9
$ELEVATION
 40
0.0
  9
$PELEVATION
 40
0.0
  9
$THICKNESS
 40
0.0
  9
$LIMCHECK
 70
     0
  9
$CHAMFERA
 40
0.0
  9
$CHAMFERB
 40
0.0
  9
$CHAMFERC
 40
0.0
  9
$CHAMFERD
 40
0.0
  9
$SKPOLY
 70
     0
  9
$TDCREATE
 40
2458768.661244375
  9
$TDUCREATE
 40
2458768.827911042
  9
$TDUPDATE
 40
2458768.661249699
  9
$TDUUPDATE
 40
2458768.827916366
  9
$TDINDWG
 40
0.0000000116
  9
$TDUSRTIMER
 40
0.0000000116
  9
$USRTIMER
 70
     1
  9
$ANGBASE
 50
0.0
  9
$ANGDIR
 70
     0
  9
$PDMODE
 70
     0
  9
$PDSIZE
 40
0.0
  9
$PLINEWID
 40
0.0
  9
$SPLFRAME
 70
     0
  9
$SPLINETYPE
 70
     6
  9
$SPLINESEGS
 70
     8
  9
$HANDSEED
  5
2C8
  9
$SURFTAB1
 70
     6
  9
$SURFTAB2
 70
     6
  9
$SURFTYPE
 70
     6
  9
$SURFU
 70
     6
  9
$SURFV
 70
     6
  9
$UCSBASE
  2

  9
$UCSNAME
  2

  9
$UCSORG
 10
0.0
 20
0.0
 30
0.0
  9
$UCSXDIR
 10
1.0
 20
0.0
 30
0.0
  9
$UCSYDIR
 10
0.0
 20
1.0
 30
0.0
  9
$UCSORTHOREF
  2

  9
$UCSORTHOVIEW
 70
     0
  9
$UCSORGTOP
 10
0.0
 20
0.0
 30
0.0
  9
$UCSORGBOTTOM
 10
0.0
 20
0.0
 30
0.0
  9
$UCSORGLEFT
 10
0.0
 20
0.0
 30
0.0
  9
$UCSORGRIGHT
 10
0.0
 20
0.0
 30
0.0
  9
$UCSORGFRONT
 10
0.0
 20
0.0
 30
0.0
  9
$UCSORGBACK
 10
0.0
 20
0.0
 30
0.0
  9
$PUCSBASE
  2

  9
$PUCSNAME
  2

  9
$PUCSORG
 10
0.0
 20
0.0
 30
0.0
  9
$PUCSXDIR
 10
1.0
 20
0.0
 30
0.0
  9
$PUCSYDIR
 10
0.0
 20
1.0
 30
0.0
  9
$PUCSORTHOREF
  2

  9
$PUCSORTHOVIEW
 70
     0
  9
$PUCSORGTOP
 10
0.0
 20
0.0
 30
0.0
  9
$PUCSORGBOTTOM
 10
0.0
 20
0.0
 30
0.0
  9
$PUCSORGLEFT
 10
0.0
 20
0.0
 30
0.0
  9
$PUCSORGRIGHT
 10
0.0
 20
0.0
 30
0.0
  9
$PUCSORGFRONT
 10
0.0
 20
0.0
 30
0.0
  9
$PUCSORGBACK
 10
0.0
 20
0.0
 30
0.0
  9
$USERI1
 70
     0
  9
$USERI2
 70
     0
  9
$USERI3
 70
     0
  9
$USERI4
 70
     0
  9
$USERI5
 70
     0
  9
$USERR1
 40
0.0
  9
$USERR2
 40
0.0
  9
$USERR3
 40
0.0
  9
$USERR4
 40
0.0
  9
$USERR5
 40
0.0
  9
$WORLDVIEW
 70
     1
  9
$SHADEDGE
 70
     3
  9
$SHADEDIF
 70
    70
  9
$TILEMODE
 70
     1
  9
$MAXACTVP
 70
    64
  9
$PINSBASE
 10
0.0
 20
0.0
 30
0.0
  9
$PLIMCHECK
 70
     0
  9
$PEXTMIN
 10
1.000000000000000E+20
 20
1.000000000000000E+20
 30
1.000000000000000E+20
  9
$PEXTMAX
 10
-1.000000000000000E+20
 20
-1.000000000000000E+20
 30
-1.000000000000000E+20
  9
$PLIMMIN
 10
0.0
 20
0.0
  9
$PLIMMAX
 10
12.0
 20
9.0
  9
$UNITMODE
 70
     0
  9
$VISRETAIN
 70
     1
  9
$PLINEGEN
 70
     0
  9
$PSLTSCALE
 70
     1
  9
$TREEDEPTH
 70
  3020
  9
$CMLSTYLE
  2
Standard
  9
$CMLJUST
 70
     0
  9
$CMLSCALE
 40
1.0
  9
$PROXYGRAPHICS
 70
     1
  9
$MEASUREMENT
 70
     0
  9
$CELWEIGHT
370
    -1
  9
$ENDCAPS
280
     0
  9
$JOINSTYLE
280
     0
  9
$LWDISPLAY
290
     0
  9
$INSUNITS
 70
     1
  9
$HYPERLINKBASE
  1

  9
$STYLESHEET
  1

  9
$XEDIT
290
     1
  9
$CEPSNTYPE
380
     0
  9
$PSTYLEMODE
290
     1
  9
$FINGERPRINTGUID
  2
{B9298AA8-5E1D-4108-8915-C8CD677EE945}
  9
$VERSIONGUID
  2
{FAEB1C32-E019-11D5-929B-00C0DF256EC4}
  9
$EXTNAMES
290
     1
  9
$PSVPSCALE
 40
0.0
  9
$OLESTARTUP
290
     0
  0
ENDSEC
  0
SECTION
  2
CLASSES
  0
CLASS
  1
ACDBDICTIONARYWDFLT
  2
AcDbDictionaryWithDefault
  3
ObjectDBX Classes
 90
        0
280
     0
281
     0
  0
CLASS
  1
VISUALSTYLE
  2
AcDbVisualStyle
  3
ObjectDBX Classes
 90
     4095
280
     0
281
     0
  0
CLASS
  1
MATERIAL
  2
AcDbMaterial
  3
ObjectDBX Classes
 90
     1153
280
     0
281
     0
  0
CLASS
  1
SCALE
  2
AcDbScale
  3
ObjectDBX Classes
 90
     1153
280
     0
281
     0
  0
CLASS
  1
TABLESTYLE
  2
AcDbTableStyle
  3
ObjectDBX Classes
 90
     4095
280
     0
281
     0
  0
CLASS
  1
MLEADERSTYLE
  2
AcDbMLeaderStyle
  3
ACDB_MLEADERSTYLE_CLASS
 90
     4095
280
     0
281
     0
  0
CLASS
  1
SUN
  2
AcDbSun
  3
SCENEOE
 90
     1153
280
     0
281
     0
  0
CLASS
  1
DICTIONARYVAR
  2
AcDbDictionaryVar
  3
ObjectDBX Classes
 90
        0
280
     0
281
     0
  0
CLASS
  1
ACDBPLACEHOLDER
  2
AcDbPlaceHolder
  3
ObjectDBX Classes
 90
        0
280
     0
281
     0
  0
CLASS
  1
LAYOUT
  2
AcDbLayout
  3
ObjectDBX Classes
 90
        0
280
     0
281
     0
  0
ENDSEC
  0
SECTION
  2
TABLES
  0
TABLE
  2
VPORT
  5
8
102
{ACAD_XDICTIONARY
360
28D
102
}
330
0
100
AcDbSymbolTable
 70
     1
  0
VPORT
  5
29
330
8
100
AcDbSymbolTableRecord
100
AcDbViewportTableRecord
  2
*Active
 70
     0
 10
0.0
 20
0.0
 11
1.0
 21
1.0
 12
287751.3774999999
 22
5052189.0433
 13
0.0
 23
0.0
 14
0.5
 24
0.5
 15
0.5
 25
0.5
 16
0.0
 26
0.0
 36
1.0
 17
0.0
 27
0.0
 37
0.0
 40
20249.53633199852
 41
1.266750886511219
 42
50.0
 43
0.0
 44
0.0
 50
0.0
 51
0.0
 71
     0
 72
   100
 73
     1
 74
     3
 75
     0
 76
     0
 77
     0
 78
     0
281
     0
 65
     1
110
0.0
120
0.0
130
0.0
111
1.0
121
0.0
131
0.0
112
0.0
122
1.0
132
0.0
 79
     0
146
0.0
  0
ENDTAB
  0
TABLE
  2
LTYPE
  5
5
330
0
100
AcDbSymbolTable
 70
     1
  0
LTYPE
  5
14
330
5
100
AcDbSymbolTableRecord
100
AcDbLinetypeTableRecord
  2
ByBlock
 70
     0
  3

 72
    65
 73
     0
 40
0.0
  0
LTYPE
  5
15
330
5
100
AcDbSymbolTableRecord
100
AcDbLinetypeTableRecord
  2
ByLayer
 70
     0
  3

 72
    65
 73
     0
 40
0.0
  0
LTYPE
  5
16
330
5
100
AcDbSymbolTableRecord
100
AcDbLinetypeTableRecord
  2
Continuous
 70
     0
  3
Solid line
 72
    65
 73
     0
 40
0.0
  0
ENDTAB
  0
TABLE
  2
LAYER
  5
2
330
0
100
AcDbSymbolTable
 70
     3
  0
LAYER
  5
10
330
2
100
AcDbSymbolTableRecord
100
AcDbLayerTableRecord
  2
0
 70
     0
 62
     7
  6
Continuous
370
    -3
390
F
  0
LAYER
  5
B2
330
2
100
AcDbSymbolTableRecord
100
AcDbLayerTableRecord
  2
BAT_PATRIMONIAL_L2000_PG
 70
     0
 62
     7
  6
Continuous
370
    -1
390
F
  0
LAYER
  5
281
330
2
100
AcDbSymbolTableRecord
100
AcDbLayerTableRecord
  2
zonage_batiment_patrimonailAnno
 70
     0
 62
   203
  6
Continuous
370
    -3
390
F
  0
ENDTAB
  0
TABLE
  2
STYLE
  5
3
330
0
100
AcDbSymbolTable
 70
     2
  0
STYLE
  5
11
330
3
100
AcDbSymbolTableRecord
100
AcDbTextStyleTableRecord
  2
Standard
 70
     0
 40
0.0
 41
1.0
 50
0.0
 71
     0
 42
0.2
  3
txt
  4

  0
STYLE
  5
283
330
3
100
AcDbSymbolTableRecord
100
AcDbTextStyleTableRecord
  2
Arial
 70
     0
 40
0.0
 41
1.0
 50
0.0
 71
     0
 42
0.2
  3
arial.ttf
  4

1001
ACAD
1000
Arial
1071
        0
  0
ENDTAB
  0
TABLE
  2
VIEW
  5
6
330
0
100
AcDbSymbolTable
 70
     0
  0
ENDTAB
  0
TABLE
  2
UCS
  5
7
330
0
100
AcDbSymbolTable
 70
     0
  0
ENDTAB
  0
TABLE
  2
APPID
  5
9
330
0
100
AcDbSymbolTable
 70
     2
  0
APPID
  5
12
330
9
100
AcDbSymbolTableRecord
100
AcDbRegAppTableRecord
  2
ACAD
 70
     0
  0
APPID
  5
27E
330
9
100
AcDbSymbolTableRecord
100
AcDbRegAppTableRecord
  2
ACAD_MLEADERVER
 70
     0
  0
ENDTAB
  0
TABLE
  2
DIMSTYLE
  5
A
330
0
100
AcDbSymbolTable
 70
     1
100
AcDbDimStyleTable
  0
DIMSTYLE
105
27
330
A
100
AcDbSymbolTableRecord
100
AcDbDimStyleTableRecord
  2
Standard
 70
     0
178
     0
340
11
  0
ENDTAB
  0
TABLE
  2
BLOCK_RECORD
  5
1
330
0
100
AcDbSymbolTable
 70
     1
  0
BLOCK_RECORD
  5
1F
330
1
100
AcDbSymbolTableRecord
100
AcDbBlockTableRecord
  2
*Model_Space
340
22
  0
BLOCK_RECORD
  5
1B
330
1
100
AcDbSymbolTableRecord
100
AcDbBlockTableRecord
  2
*Paper_Space
340
1E
  0
BLOCK_RECORD
  5
23
330
1
100
AcDbSymbolTableRecord
100
AcDbBlockTableRecord
  2
*Paper_Space0
340
26
  0
ENDTAB
  0
ENDSEC
  0
SECTION
  2
BLOCKS
  0
BLOCK
  5
20
330
1F
100
AcDbEntity
  8
0
100
AcDbBlockBegin
  2
*Model_Space
 70
     0
 10
0.0
 20
0.0
 30
0.0
  3
*Model_Space
  1

  0
ENDBLK
  5
21
330
1F
100
AcDbEntity
  8
0
100
AcDbBlockEnd
  0
BLOCK
  5
1C
330
1B
100
AcDbEntity
 67
     1
  8
0
100
AcDbBlockBegin
  2
*Paper_Space
 70
     0
 10
0.0
 20
0.0
 30
0.0
  3
*Paper_Space
  1

  0
ENDBLK
  5
1D
330
1B
100
AcDbEntity
 67
     1
  8
0
100
AcDbBlockEnd
  0
BLOCK
  5
24
330
23
100
AcDbEntity
  8
0
100
AcDbBlockBegin
  2
*Paper_Space0
 70
     0
 10
0.0
 20
0.0
 30
0.0
  3
*Paper_Space0
  1

  0
ENDBLK
  5
25
330
23
100
AcDbEntity
  8
0
100
AcDbBlockEnd
  0
ENDSEC
  0
SECTION
  2
ENTITIES
  0
LWPOLYLINE
  5
B3
330
1F
100
AcDbEntity
  8
BAT_PATRIMONIAL_L2000_PG
100
AcDbPolyline
 90
        8
 70
     1
 43
0.0
 10
293461.0418999996
 20
5052624.823000001
 10
293470.3288000003
 20
5052625.061100001
 10
293470.5669
 20
5052621.4892
 10
293473.1863000002
 20
5052621.4892
 10
293473.1863000002
 20
5052610.2973
 10
293462.4705999997
 20
5052610.2973
 10
293462.2324999999
 20
5052620.298599999
 10
293460.8037
 20
5052620.298599999
  0
LWPOLYLINE
  5
B4
330
1F
100
AcDbEntity
  8
BAT_PATRIMONIAL_L2000_PG
100
AcDbPolyline
 90
        6
 70
     1
 43
0.0
 10
293489.8859000001
 20
5052648.4197
 10
293505.3640000001
 20
5052644.847899999
 10
293505.3640000001
 20
5052639.1328
 10
293503.4589999998
 20
5052639.1328
 10
293503.4589999998
 20
5052633.894099999
 10
293489.8859000001
 20
5052633.655999999
  0
LWPOLYLINE
  5
B5
330
1F
100
AcDbEntity
  8
BAT_PATRIMONIAL_L2000_PG
100
AcDbPolyline
 90
        6
 70
     1
 43
0.0
 10
293487.0899999999
 20
5052677.924900001
 10
293495.4243999999
 20
5052677.924900001
 10
293495.1863000002
 20
5052676.258099999
 10
293501.3776000002
 20
5052675.7818
 10
293501.6157
 20
5052670.3049
 10
293487.3282000003
 20
5052670.3049
  0
LWPOLYLINE
  5
B6
330
1F
100
AcDbEntity
  8
BAT_PATRIMONIAL_L2000_PG
100
AcDbPolyline
 90
        8
 70
     1
 43
0.0
 10
293459.7056
 20
5052694.1175
 10
293465.1825000001
 20
5052694.1175
 10
293465.1825000001
 20
5052692.926899999
 10
293473.0406999998
 20
5052692.4506
 10
293473.5169000002
 20
5052682.4494
 10
293464.7062999997
 20
5052682.211200001
 10
293464.2300000004
 20
5052687.2119
 10
293459.9437999995
 20
5052687.449999999
  0
LWPOLYLINE
  5
B7
330
1F
100
AcDbEntity
  8
BAT_PATRIMONIAL_L2000_PG
100
AcDbPolyline
 90
        8
 70
     1
 43
0.0
 10
293512.3312999997
 20
5052696.022500001
 10
293491.6144000003
 20
5052703.6425
 10
293490.9000000004
 20
5052707.214400001
 10
293491.6144000003
 20
5052710.071900001
 10
293493.9956999999
 20
5052711.7388
 10
293517.5701000001
 20
5052702.928099999
 10
293515.9031999996
 20
5052698.4037
 10
293513.9982000003
 20
5052699.118100001
  0
LWPOLYLINE
  5
B8
330
1F
100
AcDbEntity
  8
BAT_PATRIMONIAL_L2000_PG
100
AcDbPolyline
 90
       10
 70
     1
 43
0.0
 10
293522.9676000001
 20
5052727.0582
 10
293526.7775999997
 20
5052720.628799999
 10
293524.6343999999
 20
5052718.9619
 10
293526.3013000004
 20
5052715.6281
 10
293522.0151000004
 20
5052712.532500001
 10
293515.8238000004
 20
5052722.7719
 10
293517.4907
 20
5052723.9625
 10
293516.2999999998
 20
5052726.105699999
 10
293518.4431999996
 20
5052727.534399999
 10
293519.8718999997
 20
5052725.3913
  0
LWPOLYLINE
  5
B9
330
1F
100
AcDbEntity
  8
BAT_PATRIMONIAL_L2000_PG
100
AcDbPolyline
 90
        6
 70
     1
 43
0.0
 10
293486.8519000001
 20
5052741.186899999
 10
293494.71
 20
5052741.425000001
 10
293494.9482000005
 20
5052737.8531
 10
293501.1393999998
 20
5052737.615
 10
293501.1393999998
 20
5052732.614399999
 10
293487.0899999999
 20
5052732.1381
  0
LWPOLYLINE
  5
BA
330
1F
100
AcDbEntity
  8
BAT_PATRIMONIAL_L2000_PG
100
AcDbPolyline
 90
       10
 70
     1
 43
0.0
 10
293488.9156999998
 20
5052746.8226
 10
293491.0587999998
 20
5052750.8708
 10
293495.8213
 20
5052748.9658
 10
293496.5356999999
 20
5052750.8708
 10
293500.5838000001
 20
5052749.918299999
 10
293500.1075999998
 20
5052748.489499999
 10
293503.2032000003
 20
5052746.8226
 10
293499.8694000002
 20
5052740.155099999
 10
293496.0593999997
 20
5052742.2982
 10
293496.7737999996
 20
5052744.203199999
  0
LWPOLYLINE
  5
BB
330
1F
100
AcDbEntity
  8
BAT_PATRIMONIAL_L2000_PG
100
AcDbPolyline
 90
        7
 70
     1
 43
0.0
 10
293489.5505999997
 20
5052757.062000001
 10
293489.7887000004
 20
5052768.492000001
 10
293488.5981000001
 20
5052768.7302
 10
293488.8361999998
 20
5052771.3496
 10
293493.8369000005
 20
5052771.3496
 10
293502.1712999996
 20
5052763.729499999
 10
293501.6950000003
 20
5052755.871400001
  0
LWPOLYLINE
  5
BC
330
1F
100
AcDbEntity
  8
BAT_PATRIMONIAL_L2000_PG
100
AcDbPolyline
 90
        8
 70
     1
 43
0.0
 10
293525.3487999998
 20
5052749.918400001
 10
293522.2532000002
 20
5052754.4427
 10
293524.8726000004
 20
5052756.1096
 10
293522.7293999996
 20
5052759.443399999
 10
293529.8732000003
 20
5052764.444
 10
293534.1594000002
 20
5052758.252800001
 10
293531.0637999997
 20
5052755.8715
 10
293531.5400999999
 20
5052753.728399999
  0
LWPOLYLINE
  5
BD
330
1F
100
AcDbEntity
  8
BAT_PATRIMONIAL_L2000_PG
100
AcDbPolyline
 90
       20
 70
     1
 43
0.0
 10
293568.2114000004
 20
5052890.332900001
 10
293587.7377000004
 20
5052881.998500001
 10
293583.4513999997
 20
5052870.3303
 10
293588.4521000003
 20
5052867.949100001
 10
293584.4039000003
 20
5052857.947799999
 10
293576.3076999998
 20
5052860.3291
 10
293573.6882999996
 20
5052853.4234
 10
293583.9276999999
 20
5052849.1372
 10
293579.6414000001
 20
5052839.1359
 10
293568.2114000004
 20
5052843.6603
 10
293564.1633000001
 20
5052833.659
 10
293583.4513999997
 20
5052824.134
 10
293577.4983000001
 20
5052809.8465
 10
293572.9738999996
 20
5052811.5133
 10
293573.4501999998
 20
5052812.704
 10
293547.7325999998
 20
5052823.8959
 10
293564.6394999996
 20
5052870.568399999
 10
293567.7351000002
 20
5052869.615900001
 10
293568.6875999998
 20
5052872.235300001
 10
293561.5438999999
 20
5052875.8072
  0
LWPOLYLINE
  5
BE
330
1F
100
AcDbEntity
  8
BAT_PATRIMONIAL_L2000_PG
100
AcDbPolyline
 90
       10
 70
     1
 43
0.0
 10
293599.0089999996
 20
5052905.572899999
 10
293606.8671000004
 20
5052917.4792
 10
293624.4884000001
 20
5052905.572899999
 10
293617.3447000002
 20
5052894.380999999
 10
293615.6777999997
 20
5052895.571599999
 10
293613.0584000004
 20
5052891.999700001
 10
293608.2959000003
 20
5052895.0954
 10
293609.4864999996
 20
5052897.476600001
 10
293605.4384000003
 20
5052899.6198
 10
293606.1528000003
 20
5052900.5723
  0
LWPOLYLINE
  5
BF
330
1F
100
AcDbEntity
  8
BAT_PATRIMONIAL_L2000_PG
100
AcDbPolyline
 90
       14
 70
     1
 43
0.0
 10
293573.1856000004
 20
5052678.586300001
 10
293579.6150000002
 20
5052670.9663
 10
293578.4243000001
 20
5052670.013800001
 10
293579.3767999997
 20
5052667.8707
 10
293574.6142999995
 20
5052664.060699999
 10
293573.6617999999
 20
5052665.489399999
 10
293570.5662000002
 20
5052663.3463
 10
293569.3755999999
 20
5052664.7751
 10
293565.8037
 20
5052662.631899999
 10
293562.7081000004
 20
5052666.6801
 10
293564.3749000002
 20
5052667.8707
 10
293563.1842999998
 20
5052669.537599999
 10
293564.8512000004
 20
5052670.252
 10
293564.1368000004
 20
5052672.157
  0
LWPOLYLINE
  5
C0
330
1F
100
AcDbEntity
  8
BAT_PATRIMONIAL_L2000_PG
100
AcDbPolyline
 90
        4
 70
     1
 43
0.0
 10
293617.4769000001
 20
5052618.340700001
 10
293626.7637999998
 20
5052625.4844
 10
293630.8119000001
 20
5052620.2457
 10
293621.7631999999
 20
5052613.1019
  0
LWPOLYLINE
  5
C1
330
1F
100
AcDbEntity
  8
BAT_PATRIMONIAL_L2000_PG
100
AcDbPolyline
 90
        4
 70
     1
 43
0.0
 10
293636.6327999998
 20
5052595.2689
 10
293641.1572000002
 20
5052589.3158
 10
293634.0133999996
 20
5052583.8389
 10
293629.4890999999
 20
5052589.791999999
  0
LWPOLYLINE
  5
C2
330
1F
100
AcDbEntity
  8
BAT_PATRIMONIAL_L2000_PG
100
AcDbPolyline
 90
        4
 70
     1
 43
0.0
 10
293660.7435999997
 20
5052361.068299999
 10
293673.6024000002
 20
5052355.3533
 10
293669.0779999997
 20
5052345.352
 10
293655.9811000004
 20
5052351.0671
  0
LWPOLYLINE
  5
C3
330
1F
100
AcDbEntity
  8
BAT_PATRIMONIAL_L2000_PG
100
AcDbPolyline
 90
        4
 70
     1
 43
0.0
 10
293658.4080999997
 20
5052334.8654
 10
293662.5820000004
 20
5052341.8917
 10
293674.6251999997
 20
5052335.785800001
 10
293670.4197000004
 20
5052328.136499999
  0
LWPOLYLINE
  5
C4
330
1F
100
AcDbEntity
  8
BAT_PATRIMONIAL_L2000_PG
100
AcDbPolyline
 90
       25
 70
     1
 43
0.0
 10
293406.8558
 20
5052868.2237
 10
293409.4752000002
 20
5052880.6062
 10
293419.2384000001
 20
5052878.2249
 10
293420.9051999999
 20
5052886.3212
 10
293443.5272000004
 20
5052881.796800001
 10
293443.0509000001
 20
5052880.368100001
 10
293454.4808999998
 20
5052877.9868
 10
293454.4808999998
 20
5052878.939300001
 10
293458.7671999997
 20
5052877.9868
 10
293458.5290999999
 20
5052876.7962
 10
293463.2916000001
 20
5052876.3199
 10
293468.5302999998
 20
5052887.273700001
 10
293466.3871999998
 20
5052889.1787
 10
293480.6747000003
 20
5052903.704399999
 10
293489.7235000003
 20
5052894.4175
 10
293481.1509999996
 20
5052886.0831
 10
293478.0554
 20
5052882.749299999
 10
293475.1979
 20
5052879.6537
 10
293472.3403000003
 20
5052873.9387
 10
293476.3885000004
 20
5052872.7481
 10
293471.3877999997
 20
5052849.411800001
 10
293426.3821
 20
5052857.984300001
 10
293427.3345999997
 20
5052861.794299999
 10
293421.1434000004
 20
5052862.7468
 10
293420.9051999999
 20
5052865.128
  0
LWPOLYLINE
  5
C5
330
1F
100
AcDbEntity
  8
BAT_PATRIMONIAL_L2000_PG
100
AcDbPolyline
 90
       10
 70
     1
 43
0.0
 10
293374.6825000001
 20
5052877.484099999
 10
293388.2555999998
 20
5052888.1998
 10
293401.5906999996
 20
5052872.4835
 10
293399.6857000003
 20
5052871.0548
 10
293402.0669
 20
5052867.721000001
 10
293397.0663000001
 20
5052863.434699999
 10
293395.8755999999
 20
5052864.625399999
 10
293393.2562999995
 20
5052862.9585
 10
293385.3980999999
 20
5052871.769099999
 10
293381.5881000003
 20
5052869.149700001
  0
LWPOLYLINE
  5
C6
330
1F
100
AcDbEntity
  8
BAT_PATRIMONIAL_L2000_PG
100
AcDbPolyline
 90
        8
 70
     1
 43
0.0
 10
293460.2753999997
 20
5052813.825300001
 10
293473.6103999997
 20
5052815.015900001
 10
293474.3247999996
 20
5052801.4428
 10
293461.466
 20
5052800.2522
 10
293460.9896999998
 20
5052802.633400001
 10
293457.4178999998
 20
5052802.633400001
 10
293457.4178999998
 20
5052810.0153
 10
293460.2753999997
 20
5052810.491599999
  0
LWPOLYLINE
  5
C7
330
1F
100
AcDbEntity
  8
BAT_PATRIMONIAL_L2000_PG
100
AcDbPolyline
 90
        8
 70
     1
 43
0.0
 10
293460.1958999997
 20
5052798.744000001
 10
293474.7215999998
 20
5052794.934
 10
293472.5784999998
 20
5052786.8378
 10
293462.1009
 20
5052789.219000001
 10
293462.5772000002
 20
5052791.3621
 10
293460.4341000002
 20
5052792.0765
 10
293460.9102999996
 20
5052793.7434
 10
293459.2434
 20
5052794.457800001
  0
LWPOLYLINE
  5
C8
330
1F
100
AcDbEntity
  8
BAT_PATRIMONIAL_L2000_PG
100
AcDbPolyline
 90
       16
 70
     1
 43
0.0
 10
293472.9753
 20
5052780.2893
 10
293469.1653000005
 20
5052762.297599999
 10
293453.9253000002
 20
5052765.0492
 10
293454.3486000001
 20
5052766.3192
 10
293452.2319
 20
5052766.7426
 10
293453.2903000005
 20
5052771.8226
 10
293456.8886000002
 20
5052770.9759
 10
293457.3119000001
 20
5052773.092599999
 10
293459.4286000002
 20
5052772.669199999
 10
293460.2752999999
 20
5052777.749299999
 10
293456.8886000002
 20
5052779.019300001
 10
293457.7352999998
 20
5052784.099300001
 10
293460.6985999998
 20
5052783.464299999
 10
293461.3335999995
 20
5052786.6393
 10
293469.5886000004
 20
5052784.945900001
 10
293468.9535999997
 20
5052781.7709
  0
LWPOLYLINE
  5
C9
330
1F
100
AcDbEntity
  8
BAT_PATRIMONIAL_L2000_PG
100
AcDbPolyline
 90
       10
 70
     1
 43
0.0
 10
293356.9024999999
 20
5052815.1349
 10
293364.5225
 20
5052805.1865
 10
293361.3475000001
 20
5052802.434800001
 10
293366.6392000001
 20
5052795.661499999
 10
293361.1358000003
 20
5052790.793199999
 10
293355.2090999996
 20
5052798.2015
 10
293357.3257999998
 20
5052800.1065
 10
293354.3624999998
 20
5052805.1865
 10
293356.2675000001
 20
5052806.668199999
 10
293352.2457999997
 20
5052811.748199999
  0
LWPOLYLINE
  5
CA
330
1F
100
AcDbEntity
  8
BAT_PATRIMONIAL_L2000_PG
100
AcDbPolyline
 90
        4
 70
     1
 43
0.0
 10
293315.1511000004
 20
5052806.297900001
 10
293323.1944000004
 20
5052812.4362
 10
293328.0626999997
 20
5052806.086200001
 10
293319.8342000004
 20
5052799.908199999
  0
LWPOLYLINE
  5
CB
330
1F
100
AcDbEntity
  8
BAT_PATRIMONIAL_L2000_PG
100
AcDbPolyline
 90
        8
 70
     1
 43
0.0
 10
293330.0734999999
 20
5052783.120300001
 10
293339.1752000004
 20
5052790.1053
 10
293341.7152000004
 20
5052786.506999999
 10
293340.6568999998
 20
5052785.4486
 10
293346.5834999997
 20
5052778.0403
 10
293339.8102000002
 20
5052772.748600001
 10
293334.3069000002
 20
5052779.9453
 10
293332.8251999998
 20
5052779.522
  0
LWPOLYLINE
  5
CC
330
1F
100
AcDbEntity
  8
BAT_PATRIMONIAL_L2000_PG
100
AcDbPolyline
 90
        4
 70
     1
 43
0.0
 10
293366.9566000002
 20
5052758.5537
 10
293358.2253
 20
5052751.8201
 10
293350.6052999999
 20
5052761.345100001
 10
293359.5482000001
 20
5052768.210999999
  0
LWPOLYLINE
  5
CD
330
1F
100
AcDbEntity
  8
BAT_PATRIMONIAL_L2000_PG
100
AcDbPolyline
 90
        6
 70
     1
 43
0.0
 10
293266.3088999996
 20
5052813.772399999
 10
293275.3576999996
 20
5052820.677999999
 10
293284.1683
 20
5052809.962400001
 10
293277.7390000001
 20
5052804.9617
 10
293275.5958000002
 20
5052807.8192
 10
293272.7383000003
 20
5052805.437999999
  0
LWPOLYLINE
  5
CE
330
1F
100
AcDbEntity
  8
BAT_PATRIMONIAL_L2000_PG
100
AcDbPolyline
 90
        6
 70
     1
 43
0.0
 10
293286.8669999996
 20
5052776.8894
 10
293283.5332000004
 20
5052781.1756
 10
293286.3907000003
 20
5052783.080700001
 10
293284.9620000003
 20
5052784.9857
 10
293295.2013999997
 20
5052792.605699999
 10
293300.2019999996
 20
5052786.4144
  0
LWPOLYLINE
  5
CF
330
1F
100
AcDbEntity
  8
BAT_PATRIMONIAL_L2000_PG
100
AcDbPolyline
 90
        8
 70
     1
 43
0.0
 10
293278.2416000003
 20
5052769.481000001
 10
293283.4802999999
 20
5052773.290999999
 10
293287.2904000003
 20
5052768.5285
 10
293303.2448000005
 20
5052780.196699999
 10
293312.7697999999
 20
5052768.2904
 10
293303.9590999996
 20
5052761.3848
 10
293302.0541000003
 20
5052764.0041
 10
293289.4335000003
 20
5052754.955399999
  0
LWPOLYLINE
  5
D0
330
1F
100
AcDbEntity
  8
BAT_PATRIMONIAL_L2000_PG
100
AcDbPolyline
 90
        6
 70
     1
 43
0.0
 10
293257.7363999998
 20
5052723.853499999
 10
293262.2342999997
 20
5052727.557700001
 10
293263.5571999997
 20
5052725.705600001
 10
293265.4093000004
 20
5052727.0285
 10
293271.4946999997
 20
5052719.355599999
 10
293264.6156000001
 20
5052714.328500001
  0
LWPOLYLINE
  5
D1
330
1F
100
AcDbEntity
  8
BAT_PATRIMONIAL_L2000_PG
100
AcDbPolyline
 90
        8
 70
     1
 43
0.0
 10
293231.0133999996
 20
5052714.0374
 10
293234.4001000002
 20
5052716.789100001
 10
293235.0351
 20
5052715.730799999
 10
293236.5166999996
 20
5052717.000800001
 10
293237.3634000001
 20
5052715.942399999
 10
293239.0566999996
 20
5052717.2125
 10
293248.5817999998
 20
5052705.570800001
 10
293241.5966999996
 20
5052700.279100001
  0
LWPOLYLINE
  5
D2
330
1F
100
AcDbEntity
  8
BAT_PATRIMONIAL_L2000_PG
100
AcDbPolyline
 90
       10
 70
     1
 43
0.0
 10
293238.6333999997
 20
5052698.2947
 10
293231.4367000004
 20
5052693.003
 10
293222.9699999997
 20
5052704.0097
 10
293221.0650000004
 20
5052702.739700001
 10
293217.6783999996
 20
5052707.184699999
 10
293220.8534000004
 20
5052709.7247
 10
293222.1233999999
 20
5052708.031400001
 10
293226.1449999996
 20
5052710.9947
 10
293226.5684000002
 20
5052710.3597
 10
293229.1084000003
 20
5052710.7831
  0
LWPOLYLINE
  5
D3
330
1F
100
AcDbEntity
  8
BAT_PATRIMONIAL_L2000_PG
100
AcDbPolyline
 90
        6
 70
     1
 43
0.0
 10
293212.4924999997
 20
5052695.8473
 10
293214.9002
 20
5052697.329
 10
293214.1594000002
 20
5052698.625399999
 10
293217.3079000004
 20
5052701.0331
 10
293226.7536000004
 20
5052689.1798
 10
293221.1973000001
 20
5052684.92
  0
LWPOLYLINE
  5
D4
330
1F
100
AcDbEntity
  8
BAT_PATRIMONIAL_L2000_PG
100
AcDbPolyline
 90
       10
 70
     1
 43
0.0
 10
293199.8454
 20
5052689.5502
 10
293203.1792000001
 20
5052691.957900001
 10
293204.4755999995
 20
5052690.476199999
 10
293207.9945999999
 20
5052692.6987
 10
293216.6994000003
 20
5052681.956599999
 10
293214.6621000003
 20
5052680.289799999
 10
293215.7732999995
 20
5052678.252499999
 10
293212.6248000003
 20
5052676.4004
 10
293211.1431
 20
5052677.696799999
 10
293209.8466999996
 20
5052676.956
  0
LWPOLYLINE
  5
D5
330
1F
100
AcDbEntity
  8
BAT_PATRIMONIAL_L2000_PG
100
AcDbPolyline
 90
        8
 70
     1
 43
0.0
 10
293183.3354000002
 20
5052685.211100001
 10
293185.9282999998
 20
5052687.248299999
 10
293186.8543999996
 20
5052686.1371
 10
293188.8916999996
 20
5052687.618799999
 10
293188.1507999999
 20
5052689.285599999
 10
293191.4846000001
 20
5052691.693399999
 10
293206.4864999996
 20
5052672.987299999
 10
293198.1520999996
 20
5052666.690199999
  0
LWPOLYLINE
  5
D6
330
1F
100
AcDbEntity
  8
BAT_PATRIMONIAL_L2000_PG
100
AcDbPolyline
 90
       16
 70
     1
 43
0.0
 10
293175.7947000004
 20
5052672.2465
 10
293178.5729
 20
5052674.469000001
 10
293179.1284999996
 20
5052673.7282
 10
293180.2397999996
 20
5052674.654200001
 10
293179.6841000002
 20
5052675.5803
 10
293182.8327000001
 20
5052677.988
 10
293186.7220999999
 20
5052673.357799999
 10
293185.6107999999
 20
5052672.616900001
 10
293187.0925000003
 20
5052671.135199999
 10
293189.1298000002
 20
5052672.431700001
 10
293195.2417000001
 20
5052664.838199999
 10
293184.6847999999
 20
5052656.874199999
 10
293178.9433000004
 20
5052664.467700001
 10
293181.9066000003
 20
5052666.690199999
 10
293180.7954000002
 20
5052668.357100001
 10
293179.3136999998
 20
5052667.2459
  0
LWPOLYLINE
  5
D7
330
1F
100
AcDbEntity
  8
BAT_PATRIMONIAL_L2000_PG
100
AcDbPolyline
 90
        8
 70
     1
 43
0.0
 10
293158.4910000004
 20
5052609.6856
 10
293166.3227000004
 20
5052615.612299999
 10
293174.1542999996
 20
5052606.087300001
 10
293172.6727
 20
5052605.028899999
 10
293173.5192999998
 20
5052603.9706
 10
293169.7093000002
 20
5052601.218900001
 10
293170.9792999998
 20
5052599.737199999
 10
293168.2276999997
 20
5052597.6206
  0
LWPOLYLINE
  5
D8
330
1F
100
AcDbEntity
  8
BAT_PATRIMONIAL_L2000_PG
100
AcDbPolyline
 90
       12
 70
     1
 43
0.0
 10
293267.9494000003
 20
5052461.386299999
 10
293278.1094000004
 20
5052469.218
 10
293292.9260999998
 20
5052450.5913
 10
293281.9194
 20
5052442.547900001
 10
293279.3794
 20
5052445.511299999
 10
293280.4376999997
 20
5052446.357899999
 10
293276.6277000001
 20
5052451.226299999
 10
293275.3576999996
 20
5052450.8029
 10
293272.6059999997
 20
5052454.4013
 10
293273.2410000004
 20
5052455.4596
 10
293271.5477
 20
5052457.576300001
 10
293270.4894000003
 20
5052457.576300001
  0
LWPOLYLINE
  5
D9
330
1F
100
AcDbEntity
  8
BAT_PATRIMONIAL_L2000_PG
100
AcDbPolyline
 90
        8
 70
     1
 43
0.0
 10
293300.8371000001
 20
5052443.4211
 10
293310.9971000003
 20
5052430.509400001
 10
293298.6541999998
 20
5052421.567299999
 10
293296.6036999999
 20
5052424.159399999
 10
293299.1436999999
 20
5052426.0644
 10
293292.7937000003
 20
5052433.8961
 10
293294.2753999997
 20
5052435.166099999
 10
293292.7937000003
 20
5052437.2827
  0
LWPOLYLINE
  5
DA
330
1F
100
AcDbEntity
  8
BAT_PATRIMONIAL_L2000_PG
100
AcDbPolyline
 90
       10
 70
     1
 43
0.0
 10
293311.3146000002
 20
5052473.5572
 10
293303.9062000001
 20
5052467.6305
 10
293295.0162000004
 20
5052478.6372
 10
293296.0745000001
 20
5052479.2722
 10
293295.2279000003
 20
5052480.330499999
 10
293302.0011999998
 20
5052485.198899999
 10
293302.4245999996
 20
5052484.7755
 10
293303.6946
 20
5052485.410499999
 10
293306.6579
 20
5052481.600500001
 10
293306.0229000002
 20
5052480.542199999
  0
LWPOLYLINE
  5
DB
330
1F
100
AcDbEntity
  8
BAT_PATRIMONIAL_L2000_PG
100
AcDbPolyline
 90
       12
 70
     1
 43
0.0
 10
293315.8653999995
 20
5052455.909399999
 10
293325.6020999998
 20
5052463.5295
 10
293326.6605000002
 20
5052462.259500001
 10
293328.7770999996
 20
5052463.7411
 10
293330.8937999997
 20
5052461.201099999
 10
293329.6238000002
 20
5052459.9311
 10
293333.4337999998
 20
5052455.062799999
 10
293334.7038000003
 20
5052456.121099999
 10
293337.4555000002
 20
5052452.7344
 10
293335.3388
 20
5052451.041099999
 10
293336.3971999995
 20
5052449.3478
 10
293326.4488000004
 20
5052442.1511
  0
LWPOLYLINE
  5
DC
330
1F
100
AcDbEntity
  8
BAT_PATRIMONIAL_L2000_PG
100
AcDbPolyline
 90
        6
 70
     1
 43
0.0
 10
293213.4184999997
 20
5052651.1327
 10
293218.1810999997
 20
5052654.704600001
 10
293226.9917000001
 20
5052643.750800001
 10
293224.1342000002
 20
5052641.6077
 10
293222.2291999999
 20
5052643.512700001
 10
293220.0861
 20
5052642.083900001
  0
LWPOLYLINE
  5
DD
330
1F
100
AcDbEntity
  8
BAT_PATRIMONIAL_L2000_PG
100
AcDbPolyline
 90
       12
 70
     1
 43
0.0
 10
293244.5601000004
 20
5052651.3179
 10
293233.1300999997
 20
5052666.319800001
 10
293234.3207
 20
5052667.0341
 10
293233.6063999999
 20
5052668.700999999
 10
293239.5595000004
 20
5052673.463500001
 10
293240.9883000003
 20
5052672.749199999
 10
293241.7026000004
 20
5052673.225400001
 10
293253.1327
 20
5052657.985400001
 10
293250.2751000002
 20
5052655.6041
 10
293249.3225999996
 20
5052656.7947
 10
293246.9413999999
 20
5052654.889699999
 10
293247.8938999996
 20
5052653.460999999
  0
LWPOLYLINE
  5
DE
330
1F
100
AcDbEntity
  8
BAT_PATRIMONIAL_L2000_PG
100
AcDbPolyline
 90
       12
 70
     1
 43
0.0
 10
293256.7838000003
 20
5052660.6841
 10
293245.1157
 20
5052675.209799999
 10
293246.0681999996
 20
5052675.9242
 10
293244.8775000004
 20
5052677.114800001
 10
293251.0687999995
 20
5052682.1154
 10
293251.7832000004
 20
5052680.924799999
 10
293253.6881999997
 20
5052681.8773
 10
293265.5943999998
 20
5052666.161
 10
293262.9751000004
 20
5052664.494100001
 10
293261.5462999996
 20
5052665.922900001
 10
293258.6887999997
 20
5052663.5416
 10
293258.9269000003
 20
5052662.1129
  0
LWPOLYLINE
  5
DF
330
1F
100
AcDbEntity
  8
BAT_PATRIMONIAL_L2000_PG
100
AcDbPolyline
 90
        6
 70
     1
 43
0.0
 10
293275.8338000001
 20
5052702.131200001
 10
293283.2422000002
 20
5052707.634500001
 10
293291.9205
 20
5052696.416099999
 10
293285.9939000001
 20
5052692.182800001
 10
293283.4539000001
 20
5052695.357799999
 10
293281.9721999997
 20
5052693.8761
  0
LWPOLYLINE
  5
E0
330
1F
100
AcDbEntity
  8
BAT_PATRIMONIAL_L2000_PG
100
AcDbPolyline
 90
        8
 70
     1
 43
0.0
 10
293287.3698000005
 20
5052708.798699999
 10
293294.9897999996
 20
5052714.725400001
 10
293298.3765000002
 20
5052710.4921
 10
293300.2814999996
 20
5052711.5504
 10
293304.9381999997
 20
5052705.6237
 10
293299.4347999999
 20
5052701.6021
 10
293296.4715
 20
5052705.2004
 10
293292.6615000004
 20
5052702.2371
  0
LWPOLYLINE
  5
E1
330
1F
100
AcDbEntity
  8
BAT_PATRIMONIAL_L2000_PG
100
AcDbPolyline
 90
        6
 70
     1
 43
0.0
 10
293298.5882000001
 20
5052719.805400001
 10
293306.6315000001
 20
5052725.732000001
 10
293315.5214999998
 20
5052714.513699999
 10
293309.3832
 20
5052709.645300001
 10
293307.0548
 20
5052712.397
 10
293305.1497999998
 20
5052711.5503
  0
LWPOLYLINE
  5
E2
330
1F
100
AcDbEntity
  8
BAT_PATRIMONIAL_L2000_PG
100
AcDbPolyline
 90
        4
 70
     1
 43
0.0
 10
293324.9407000002
 20
5052739.4904
 10
293332.5607000003
 20
5052745.205399999
 10
293339.5456999997
 20
5052735.945
 10
293332.1374000004
 20
5052730.388699999
  0
LWPOLYLINE
  5
E3
330
1F
100
AcDbEntity
  8
BAT_PATRIMONIAL_L2000_PG
100
AcDbPolyline
 90
        6
 70
     1
 43
0.0
 10
293331.1848999998
 20
5052717.0538
 10
293339.4398999996
 20
5052723.6154
 10
293337.5349000003
 20
5052726.3671
 10
293343.0382000003
 20
5052730.812100001
 10
293348.1183000002
 20
5052724.038799999
 10
293334.3598999996
 20
5052713.032099999
  0
LWPOLYLINE
  5
E4
330
1F
100
AcDbEntity
  8
BAT_PATRIMONIAL_L2000_PG
100
AcDbPolyline
 90
        6
 70
     1
 43
0.0
 10
293337.3232000005
 20
5052711.7621
 10
293349.8115999997
 20
5052721.4988
 10
293354.2566
 20
5052715.9954
 10
293344.0965
 20
5052707.7404
 10
293342.1914999997
 20
5052710.4921
 10
293339.8631999996
 20
5052708.587099999
  0
LWPOLYLINE
  5
E5
330
1F
100
AcDbEntity
  8
BAT_PATRIMONIAL_L2000_PG
100
AcDbPolyline
 90
        6
 70
     1
 43
0.0
 10
293321.4482000005
 20
5052670.9103
 10
293317.2148000002
 20
5052676.4136
 10
293319.3315000003
 20
5052677.683599999
 10
293317.2148000002
 20
5052680.6469
 10
293322.0832000002
 20
5052684.245300001
 10
293328.2215
 20
5052675.9903
  0
LWPOLYLINE
  5
E6
330
1F
100
AcDbEntity
  8
BAT_PATRIMONIAL_L2000_PG
100
AcDbPolyline
 90
        6
 70
     1
 43
0.0
 10
293306.8431000002
 20
5052660.644400001
 10
293303.0330999997
 20
5052665.7245
 10
293304.0915000001
 20
5052666.3595
 10
293303.2448000005
 20
5052668.2645
 10
293308.1130999997
 20
5052671.8628
 10
293313.1931999996
 20
5052664.877800001
  0
LWPOLYLINE
  5
E7
330
1F
100
AcDbEntity
  8
BAT_PATRIMONIAL_L2000_PG
100
AcDbPolyline
 90
        4
 70
     1
 43
0.0
 10
293369.0733000003
 20
5052684.5364
 10
293364.7341
 20
5052690.304300001
 10
293371.0840999996
 20
5052695.384299999
 10
293375.5290999999
 20
5052689.245999999
  0
LWPOLYLINE
  5
E8
330
1F
100
AcDbEntity
  8
BAT_PATRIMONIAL_L2000_PG
100
AcDbPolyline
 90
        4
 70
     1
 43
0.0
 10
293359.7598999999
 20
5052675.3288
 10
293352.7748999996
 20
5052670.0901
 10
293347.9066000003
 20
5052676.651799999
 10
293354.7856999999
 20
5052681.996400001
  0
LWPOLYLINE
  5
E9
330
1F
100
AcDbEntity
  8
BAT_PATRIMONIAL_L2000_PG
100
AcDbPolyline
 90
        6
 70
     1
 43
0.0
 10
293370.4490999999
 20
5052669.772600001
 10
293381.8790999996
 20
5052678.662599999
 10
293386.9590999996
 20
5052672.3126
 10
293377.0108000003
 20
5052664.904200001
 10
293374.5766000003
 20
5052667.603
 10
293372.9890999999
 20
5052666.2272
  0
LWPOLYLINE
  5
EA
330
1F
100
AcDbEntity
  8
BAT_PATRIMONIAL_L2000_PG
100
AcDbPolyline
 90
        6
 70
     1
 43
0.0
 10
293378.8098999998
 20
5052662.3642
 10
293388.5466
 20
5052669.772500001
 10
293393.6266000001
 20
5052663.210899999
 10
293381.5615999997
 20
5052653.897500001
 10
293378.8098999998
 20
5052657.4959
 10
293381.1382999998
 20
5052658.977499999
  0
LWPOLYLINE
  5
EB
330
1F
100
AcDbEntity
  8
BAT_PATRIMONIAL_L2000_PG
100
AcDbPolyline
 90
       12
 70
     1
 43
0.0
 10
293388.0175000001
 20
5052648.394200001
 10
293399.0241999999
 20
5052657.0726
 10
293400.7175000003
 20
5052654.9559
 10
293402.6224999996
 20
5052656.4376
 10
293404.9507999998
 20
5052653.262599999
 10
293403.2575000003
 20
5052651.9925
 10
293404.1041999999
 20
5052650.2992
 10
293395.8492000001
 20
5052643.525900001
 10
293394.1557999998
 20
5052645.2192
 10
293392.6741000004
 20
5052643.949200001
 10
293391.6157999998
 20
5052645.2192
 10
293390.7691000002
 20
5052644.7959
  0
LWPOLYLINE
  5
EC
330
1F
100
AcDbEntity
  8
BAT_PATRIMONIAL_L2000_PG
100
AcDbPolyline
 90
        6
 70
     1
 43
0.0
 10
293370.4490999999
 20
5052649.346799999
 10
293374.4708000002
 20
5052652.3101
 10
293381.4557999996
 20
5052642.9968
 10
293376.7991000004
 20
5052639.186799999
 10
293373.6240999997
 20
5052642.9968
 10
293374.8941000002
 20
5052643.8434
  0
LWPOLYLINE
  5
ED
330
1F
100
AcDbEntity
  8
BAT_PATRIMONIAL_L2000_PG
100
AcDbPolyline
 90
        8
 70
     1
 43
0.0
 10
293382.3025000002
 20
5052614.620100001
 10
293387.6734999996
 20
5052618.509500001
 10
293390.8221000005
 20
5052614.434900001
 10
293392.3037
 20
5052615.5462
 10
293395.4523
 20
5052611.842
 10
293391.5629000003
 20
5052608.693399999
 10
293389.8959999997
 20
5052610.915899999
 10
293386.9326999998
 20
5052608.878599999
  0
LWPOLYLINE
  5
EE
330
1F
100
AcDbEntity
  8
BAT_PATRIMONIAL_L2000_PG
100
AcDbPolyline
 90
       10
 70
     1
 43
0.0
 10
288046.7999999998
 20
5056772.300000001
 10
288044.0
 20
5056783.0
 10
288049.7999999998
 20
5056784.5
 10
288050.2999999998
 20
5056782.800000001
 10
288053.5999999996
 20
5056783.6
 10
288054.9000000004
 20
5056778.800000001
 10
288056.5
 20
5056779.199999999
 10
288057.2000000002
 20
5056776.5
 10
288055.5999999996
 20
5056776.1
 10
288056.0
 20
5056774.699999999
  0
LWPOLYLINE
  5
EF
330
1F
100
AcDbEntity
  8
BAT_PATRIMONIAL_L2000_PG
100
AcDbPolyline
 90
        8
 70
     1
 43
0.0
 10
279433.4833000004
 20
5043128.877900001
 10
279442.0285
 20
5043134.9816
 10
279448.0439999998
 20
5043125.519200001
 10
279446.0898000002
 20
5043124.1647
 10
279447.4256999996
 20
5043122.2289
 10
279444.4699999997
 20
5043120.332699999
 10
279441.7232999997
 20
5043124.6053
 10
279437.7559000002
 20
5043122.163799999
  0
LWPOLYLINE
  5
F0
330
1F
100
AcDbEntity
  8
BAT_PATRIMONIAL_L2000_PG
100
AcDbPolyline
 90
        8
 70
     1
 43
0.0
 10
279464.7445999999
 20
5043192.183800001
 10
279473.5950999996
 20
5043198.287599999
 10
279476.3416999998
 20
5043194.3201
 10
279474.7571999999
 20
5043192.932399999
 10
279475.7313999999
 20
5043191.268300001
 10
279471.4587000003
 20
5043188.216399999
 10
279472.0717000002
 20
5043186.820499999
 10
279469.6276000002
 20
5043185.1645
  0
LWPOLYLINE
  5
F1
330
1F
100
AcDbEntity
  8
BAT_PATRIMONIAL_L2000_PG
100
AcDbPolyline
 90
        8
 70
     1
 43
0.0
 10
279501.7977
 20
5043204.8453
 10
279509.9998000003
 20
5043209.3432
 10
279508.9414999997
 20
5043211.459899999
 10
279511.3227000004
 20
5043213.0474
 10
279515.2915000003
 20
5043206.6973
 10
279513.4393999996
 20
5043205.1098
 10
279515.5560999997
 20
5043201.934800001
 10
279506.8247999996
 20
5043197.1723
  0
LWPOLYLINE
  5
F2
330
1F
100
AcDbEntity
  8
BAT_PATRIMONIAL_L2000_PG
100
AcDbPolyline
 90
        8
 70
     1
 43
0.0
 10
279657.0203
 20
5043301.594699999
 10
279671.5723999999
 20
5043310.0614
 10
279681.8912000004
 20
5043293.657199999
 10
279673.1599000003
 20
5043288.630100001
 10
279672.1015999997
 20
5043289.953
 10
279667.9430999998
 20
5043288.6654
 10
279661.2756000003
 20
5043298.8254
 10
279659.4016000004
 20
5043297.8906
  0
LWPOLYLINE
  5
F3
330
1F
100
AcDbEntity
  8
BAT_PATRIMONIAL_L2000_PG
100
AcDbPolyline
 90
        8
 70
     1
 43
0.0
 10
279663.4583999999
 20
5043333.962200001
 10
279679.5981000001
 20
5043344.280999999
 10
279682.5085000005
 20
5043339.5184
 10
279685.4188999999
 20
5043341.3705
 10
279704.9981000004
 20
5043310.6788
 10
279689.9167999998
 20
5043301.418400001
 10
279673.8698000005
 20
5043327.083000001
 10
279669.2792999996
 20
5043324.437200001
  0
LWPOLYLINE
  5
F4
330
1F
100
AcDbEntity
  8
BAT_PATRIMONIAL_L2000_PG
100
AcDbPolyline
 90
        6
 70
     1
 43
0.0
 10
279722.7648999998
 20
5043310.784600001
 10
279726.1648000004
 20
5043312.5309
 10
279727.7522999998
 20
5043309.355900001
 10
279729.3398000002
 20
5043310.4142
 10
279731.9857000001
 20
5043305.651699999
 10
279727.4877000004
 20
5043302.7413
  0
LWPOLYLINE
  5
F5
330
1F
100
AcDbEntity
  8
BAT_PATRIMONIAL_L2000_PG
100
AcDbPolyline
 90
       12
 70
     1
 43
0.0
 10
279732.5148
 20
5043321.2622
 10
279734.8960999995
 20
5043322.320499999
 10
279734.6315000001
 20
5043323.6434
 10
279738.0711000003
 20
5043325.4955
 10
279743.0981999999
 20
5043316.499600001
 10
279744.6857000003
 20
5043317.293400001
 10
279747.5960999997
 20
5043312.001700001
 10
279740.1878000004
 20
5043307.7684
 10
279739.1294
 20
5043309.6205
 10
279736.4835999999
 20
5043308.297499999
 10
279733.3086000001
 20
5043313.853800001
 10
279735.9544000002
 20
5043315.1767
  0
LWPOLYLINE
  5
F6
330
1F
100
AcDbEntity
  8
BAT_PATRIMONIAL_L2000_PG
100
AcDbPolyline
 90
        9
 70
     1
 43
0.0
 10
279770.2180000003
 20
5043302.728
 10
279780.2324999999
 20
5043307.6229
 10
279783.9764
 20
5043301.206700001
 10
279788.7389000002
 20
5043294.5921
 10
279783.3148999996
 20
5043291.615499999
 10
279784.6379000004
 20
5043289.366599999
 10
279780.7882000003
 20
5043286.8795
 10
279777.3618000001
 20
5043290.8879
 10
279772.5992999999
 20
5043297.0395
  0
LWPOLYLINE
  5
F7
330
1F
100
AcDbEntity
  8
BAT_PATRIMONIAL_L2000_PG
100
AcDbPolyline
 90
        8
 70
     1
 43
0.0
 10
279789.1358000003
 20
5043338.9452
 10
279794.4275000002
 20
5043341.4146
 10
279793.0163000003
 20
5043344.589600001
 10
279797.2496999996
 20
5043346.7063
 10
279802.8941000002
 20
5043337.181299999
 10
279801.483
 20
5043336.4757
 10
279802.1886
 20
5043334.7118
 10
279793.7219000002
 20
5043329.7729
  0
LWPOLYLINE
  5
F8
330
1F
100
AcDbEntity
  8
BAT_PATRIMONIAL_L2000_PG
100
AcDbPolyline
 90
       10
 70
     1
 43
0.0
 10
279834.6442
 20
5043376.910800001
 10
279843.7061999999
 20
5043382.136299999
 10
279846.352
 20
5043378.3726
 10
279844.5
 20
5043377.261299999
 10
279848.3892999999
 20
5043370.964199999
 10
279850.1355999997
 20
5043371.877
 10
279851.1939000003
 20
5043369.971999999
 10
279845.6906000003
 20
5043366.162
 10
279844.6852000002
 20
5043367.6305
 10
279841.6953999996
 20
5043365.910700001
  0
LWPOLYLINE
  5
F9
330
1F
100
AcDbEntity
  8
BAT_PATRIMONIAL_L2000_PG
100
AcDbPolyline
 90
        8
 70
     1
 43
0.0
 10
279971.2489
 20
5043358.753699999
 10
279980.9590999996
 20
5043364.3893
 10
279984.9277999997
 20
5043358.3039
 10
279983.3403000003
 20
5043357.5101
 10
279984.6633000001
 20
5043355.128900001
 10
279978.3131999997
 20
5043351.689300001
 10
279976.9902999997
 20
5043353.5414
 10
279974.9529999997
 20
5043352.4037
  0
LWPOLYLINE
  5
FA
330
1F
100
AcDbEntity
  8
BAT_PATRIMONIAL_L2000_PG
100
AcDbPolyline
 90
        6
 70
     1
 43
0.0
 10
279972.8496000003
 20
5043424.674799999
 10
279976.3685999997
 20
5043427.2677
 10
279978.5910999998
 20
5043424.119100001
 10
279980.9590999996
 20
5043424.5359
 10
279984.3324999996
 20
5043418.9333
 10
279979.5170999998
 20
5043415.4143
  0
LWPOLYLINE
  5
FB
330
1F
100
AcDbEntity
  8
BAT_PATRIMONIAL_L2000_PG
100
AcDbPolyline
 90
       12
 70
     1
 43
0.0
 10
284228.5548999999
 20
5045496.620100001
 10
284232.7274000002
 20
5045499.6547
 10
284231.2100999998
 20
5045501.5513
 10
284239.1759000001
 20
5045506.8618
 10
284240.6931999996
 20
5045504.585899999
 10
284245.2450999999
 20
5045507.2412
 10
284272.1770000001
 20
5045471.584799999
 10
284268.0044
 20
5045468.1709
 10
284274.4528999999
 20
5045459.4465
 10
284265.3492000001
 20
5045452.6187
 10
284253.9694999997
 20
5045467.4123
 10
284250.5555999996
 20
5045465.515699999
  0
LWPOLYLINE
  5
FC
330
1F
100
AcDbEntity
  8
BAT_PATRIMONIAL_L2000_PG
100
AcDbPolyline
 90
       14
 70
     1
 43
0.0
 10
284259.9899000004
 20
5045522.723099999
 10
284274.0127999997
 20
5045532.7773
 10
284277.4523999998
 20
5045528.014799999
 10
284275.8649000004
 20
5045526.427300001
 10
284280.0982999997
 20
5045520.6065
 10
284283.2732999995
 20
5045522.723099999
 10
284288.5648999996
 20
5045515.579399999
 10
284285.6545000002
 20
5045513.4627
 10
284289.3586999997
 20
5045507.906400001
 10
284279.5691
 20
5045500.762700001
 10
284272.4253000002
 20
5045510.8169
 10
284270.3086000001
 20
5045509.493899999
 10
284265.8107000003
 20
5045515.844000001
 10
284264.7523999996
 20
5045515.3148
  0
LWPOLYLINE
  5
FD
330
1F
100
AcDbEntity
  8
BAT_PATRIMONIAL_L2000_PG
100
AcDbPolyline
 90
        4
 70
     1
 43
0.0
 10
284271.8962000003
 20
5045626.9692
 10
284282.2149
 20
5045632.5254
 10
284287.7712000003
 20
5045622.7358
 10
284277.4523999998
 20
5045616.914999999
  0
LWPOLYLINE
  5
FE
330
1F
100
AcDbEntity
  8
BAT_PATRIMONIAL_L2000_PG
100
AcDbPolyline
 90
       12
 70
     1
 43
0.0
 10
284345.4769000001
 20
5045659.050000001
 10
284352.3826000001
 20
5045664.0506
 10
284358.0976
 20
5045656.192500001
 10
284360.2407
 20
5045657.621200001
 10
284363.0981999999
 20
5045653.8112
 10
284360.7170000002
 20
5045651.43
 10
284363.8125999998
 20
5045646.9056
 10
284359.7644999996
 20
5045643.809900001
 10
284356.9068999998
 20
5045647.858100001
 10
284353.3350999998
 20
5045645.7149
 10
284349.5251000002
 20
5045650.2393
 10
284351.1919
 20
5045651.43
  0
LWPOLYLINE
  5
FF
330
1F
100
AcDbEntity
  8
BAT_PATRIMONIAL_L2000_PG
100
AcDbPolyline
 90
       12
 70
     1
 43
0.0
 10
284313.0919000003
 20
5045691.435000001
 10
284317.3781000003
 20
5045695.483200001
 10
284324.5219000001
 20
5045688.101299999
 10
284325.4743999997
 20
5045688.577500001
 10
284327.6174999997
 20
5045685.9582
 10
284329.2844000002
 20
5045686.4344
 10
284334.2850000001
 20
5045678.8144
 10
284329.0462999996
 20
5045675.2425
 10
284327.1413000003
 20
5045678.576300001
 10
284324.9981000004
 20
5045677.8619
 10
284319.7593999999
 20
5045684.7675
 10
284318.5686999997
 20
5045684.5294
  0
LWPOLYLINE
  5
100
330
1F
100
AcDbEntity
  8
BAT_PATRIMONIAL_L2000_PG
100
AcDbPolyline
 90
       10
 70
     1
 43
0.0
 10
281184.0483999997
 20
5051416.4944
 10
281187.3821999999
 20
5051420.304400001
 10
281188.5728000002
 20
5051419.59
 10
281188.8108999999
 20
5051420.5425
 10
281194.0497000003
 20
5051416.4944
 10
281192.6209000004
 20
5051414.351299999
 10
281195.9546999997
 20
5051411.493799999
 10
281192.8591
 20
5051407.683800001
 10
281188.5728000002
 20
5051410.7794
 10
281189.2872000001
 20
5051411.970000001
  0
LWPOLYLINE
  5
101
330
1F
100
AcDbEntity
  8
BAT_PATRIMONIAL_L2000_PG
100
AcDbPolyline
 90
        8
 70
     1
 43
0.0
 10
281308.1118000001
 20
5051601.2798
 10
281310.9693
 20
5051604.613500001
 10
281309.3024000004
 20
5051606.280400001
 10
281311.9217999997
 20
5051609.6142
 10
281320.0181
 20
5051602.946699999
 10
281317.6368000004
 20
5051600.565400001
 10
281319.0656000003
 20
5051598.898499999
 10
281315.2555999998
 20
5051594.850400001
  0
LWPOLYLINE
  5
102
330
1F
100
AcDbEntity
  8
BAT_PATRIMONIAL_L2000_PG
100
AcDbPolyline
 90
        8
 70
     1
 43
0.0
 10
281439.557
 20
5051763.4432
 10
281444.0813999996
 20
5051763.919500001
 10
281445.0339000002
 20
5051760.3476
 10
281447.8914000001
 20
5051760.5857
 10
281449.3202
 20
5051754.8707
 10
281447.8914000001
 20
5051754.394400001
 10
281448.3677000003
 20
5051751.060699999
 10
281441.9382999996
 20
5051749.870100001
  0
LWPOLYLINE
  5
103
330
1F
100
AcDbEntity
  8
BAT_PATRIMONIAL_L2000_PG
100
AcDbPolyline
 90
        4
 70
     1
 43
0.0
 10
281451.4633999998
 20
5051763.681399999
 10
281458.8453000002
 20
5051765.110099999
 10
281460.2740000002
 20
5051758.204500001
 10
281452.6540000001
 20
5051756.775699999
  0
LWPOLYLINE
  5
104
330
1F
100
AcDbEntity
  8
BAT_PATRIMONIAL_L2000_PG
100
AcDbPolyline
 90
        6
 70
     1
 43
0.0
 10
281577.4316999996
 20
5051888.9353
 10
281583.6229999997
 20
5051892.030999999
 10
281590.5285999998
 20
5051878.457800001
 10
281581.0036000004
 20
5051873.2191
 10
281577.1935999999
 20
5051881.553400001
 10
281579.8130000001
 20
5051882.9822
  0
LWPOLYLINE
  5
105
330
1F
100
AcDbEntity
  8
BAT_PATRIMONIAL_L2000_PG
100
AcDbPolyline
 90
       10
 70
     1
 43
0.0
 10
281684.1118999999
 20
5051947.990499999
 10
281693.1606999999
 20
5051956.324899999
 10
281696.4945
 20
5051952.753
 10
281694.1131999996
 20
5051950.6099
 10
281697.2088000001
 20
5051946.799900001
 10
281691.9700999996
 20
5051942.0373
 10
281692.9226000002
 20
5051941.084799999
 10
281687.9219000004
 20
5051935.846100001
 10
281682.6831999999
 20
5051941.7992
 10
281686.4932000004
 20
5051944.8948
  0
LWPOLYLINE
  5
106
330
1F
100
AcDbEntity
  8
BAT_PATRIMONIAL_L2000_PG
100
AcDbPolyline
 90
        4
 70
     1
 43
0.0
 10
281726.2600999996
 20
5052023.2382
 10
281731.9752000002
 20
5052028.953199999
 10
281739.3569999998
 20
5052021.3332
 10
281733.4039000003
 20
5052015.618100001
  0
LWPOLYLINE
  5
107
330
1F
100
AcDbEntity
  8
BAT_PATRIMONIAL_L2000_PG
100
AcDbPolyline
 90
        8
 70
     1
 43
0.0
 10
281737.4521000003
 20
5052044.669399999
 10
281743.6432999996
 20
5052050.8607
 10
281749.3583000004
 20
5052045.860099999
 10
281747.6914999997
 20
5052043.9551
 10
281749.5965
 20
5052041.573799999
 10
281746.5007999996
 20
5052038.7163
 10
281745.0721000005
 20
5052040.145099999
 10
281743.4051999999
 20
5052038.954399999
  0
LWPOLYLINE
  5
108
330
1F
100
AcDbEntity
  8
BAT_PATRIMONIAL_L2000_PG
100
AcDbPolyline
 90
        6
 70
     1
 43
0.0
 10
281752.6919999998
 20
5052057.7663
 10
281758.6452000001
 20
5052062.767000001
 10
281766.5033
 20
5052053.4801
 10
281763.6458000001
 20
5052050.6226
 10
281761.7407999998
 20
5052053.003799999
 10
281759.1213999996
 20
5052050.384400001
  0
LWPOLYLINE
  5
109
330
1F
100
AcDbEntity
  8
BAT_PATRIMONIAL_L2000_PG
100
AcDbPolyline
 90
       14
 70
     1
 43
0.0
 10
281801.2697000001
 20
5052128.0133
 10
281817.7002999997
 20
5052137.062100001
 10
281821.5103000002
 20
5052130.3946
 10
281819.8435000004
 20
5052129.2039
 10
281822.4627999999
 20
5052124.441400001
 10
281821.2721999995
 20
5052123.012700001
 10
281822.9391000001
 20
5052120.6314
 10
281820.0816000002
 20
5052118.726399999
 10
281818.4146999996
 20
5052120.8696
 10
281814.1283999998
 20
5052118.488299999
 10
281815.0809000004
 20
5052116.3452
 10
281811.5091000004
 20
5052113.7258
 10
281809.3658999996
 20
5052118.2502
 10
281807.2227999996
 20
5052117.535800001
  0
LWPOLYLINE
  5
10A
330
1F
100
AcDbEntity
  8
BAT_PATRIMONIAL_L2000_PG
100
AcDbPolyline
 90
       10
 70
     1
 43
0.0
 10
281850.7998000002
 20
5052158.4934
 10
281858.6579
 20
5052159.9222
 10
281860.5629000003
 20
5052148.254000001
 10
281857.7054000003
 20
5052148.015900001
 10
281857.7054000003
 20
5052145.6346
 10
281859.8485000003
 20
5052145.396500001
 10
281860.801
 20
5052141.3484
 10
281854.6097999997
 20
5052139.919600001
 10
281853.6573000001
 20
5052146.825300001
 10
281852.2285000002
 20
5052146.825300001
  0
LWPOLYLINE
  5
10B
330
1F
100
AcDbEntity
  8
BAT_PATRIMONIAL_L2000_PG
100
AcDbPolyline
 90
        8
 70
     1
 43
0.0
 10
281855.5623000003
 20
5052169.6853
 10
281849.8472999996
 20
5052168.4947
 10
281846.2753999997
 20
5052186.8303
 10
281851.9903999995
 20
5052187.306600001
 10
281853.1809999999
 20
5052180.8772
 10
281855.8004000001
 20
5052181.1153
 10
281856.2767000003
 20
5052178.0197
 10
281854.3716000002
 20
5052177.543400001
  0
LWPOLYLINE
  5
10C
330
1F
100
AcDbEntity
  8
BAT_PATRIMONIAL_L2000_PG
100
AcDbPolyline
 90
        6
 70
     1
 43
0.0
 10
281791.0302999998
 20
5052188.0209
 10
281793.8877999997
 20
5052192.3072
 10
281805.3178000003
 20
5052183.258400001
 10
281799.6028000005
 20
5052175.1622
 10
281791.2684000004
 20
5052182.3059
 10
281793.6497
 20
5052185.4016
  0
LWPOLYLINE
  5
10D
330
1F
100
AcDbEntity
  8
BAT_PATRIMONIAL_L2000_PG
100
AcDbPolyline
 90
       10
 70
     1
 43
0.0
 10
281820.0815000003
 20
5052203.0229
 10
281811.2708999999
 20
5052191.592900001
 10
281803.4127000002
 20
5052197.7841
 10
281804.6034000004
 20
5052199.2129
 10
281802.6984000001
 20
5052201.117900001
 10
281804.1271000002
 20
5052203.0229
 10
281805.7939999998
 20
5052201.5941
 10
281809.1277999999
 20
5052205.404100001
 10
281804.6034000004
 20
5052209.690400001
 10
281808.1753000002
 20
5052213.738500001
  0
LWPOLYLINE
  5
10E
330
1F
100
AcDbEntity
  8
BAT_PATRIMONIAL_L2000_PG
100
AcDbPolyline
 90
        8
 70
     1
 43
0.0
 10
281733.8801999995
 20
5052136.5858
 10
281746.2626999998
 20
5052139.919600001
 10
281747.9296000004
 20
5052133.7283
 10
281745.5482999999
 20
5052133.014
 10
281747.9296000004
 20
5052124.203299999
 10
281741.2620999999
 20
5052122.5364
 10
281738.6426999997
 20
5052130.8708
 10
281735.5471000001
 20
5052129.918299999
  0
LWPOLYLINE
  5
10F
330
1F
100
AcDbEntity
  8
BAT_PATRIMONIAL_L2000_PG
100
AcDbPolyline
 90
       12
 70
     1
 43
0.0
 10
281700.3044999996
 20
5052111.820800001
 10
281704.3525999999
 20
5052115.3927
 10
281702.4475999996
 20
5052117.535800001
 10
281704.5906999996
 20
5052119.4408
 10
281703.1619999995
 20
5052121.1077
 10
281706.4957999997
 20
5052124.203400001
 10
281712.2107999995
 20
5052118.0121
 10
281713.8776000002
 20
5052119.2027
 10
281717.4495000001
 20
5052115.3927
 10
281715.5444999998
 20
5052113.4877
 10
281718.4019999998
 20
5052109.4396
 10
281709.8295
 20
5052101.1052
  0
LWPOLYLINE
  5
110
330
1F
100
AcDbEntity
  8
BAT_PATRIMONIAL_L2000_PG
100
AcDbPolyline
 90
        6
 70
     1
 43
0.0
 10
281589.3380000005
 20
5052051.3369
 10
281590.2905000001
 20
5052051.3369
 10
281589.5761000002
 20
5052057.528200001
 10
281598.6249000002
 20
5052058.957
 10
281602.4348999998
 20
5052039.9069
 10
281591.4811000004
 20
5052038.0019
  0
LWPOLYLINE
  5
111
330
1F
100
AcDbEntity
  8
BAT_PATRIMONIAL_L2000_PG
100
AcDbPolyline
 90
        8
 70
     1
 43
0.0
 10
281581.4798999997
 20
5052006.5693
 10
281578.6222999999
 20
5052006.0931
 10
281578.6222999999
 20
5052007.045600001
 10
281569.8117000004
 20
5052005.855
 10
281568.6211000001
 20
5052013.475
 10
281576.2411000002
 20
5052014.4275
 10
281576.9555000002
 20
5052011.331900001
 10
281580.5273000002
 20
5052011.8081
  0
LWPOLYLINE
  5
112
330
1F
100
AcDbEntity
  8
BAT_PATRIMONIAL_L2000_PG
100
AcDbPolyline
 90
        4
 70
     1
 43
0.0
 10
281818.6821999997
 20
5052230.1338
 10
281825.5613000002
 20
5052236.2192
 10
281831.9113999996
 20
5052229.604599999
 10
281824.8821
 20
5052223.2465
  0
LWPOLYLINE
  5
113
330
1F
100
AcDbEntity
  8
BAT_PATRIMONIAL_L2000_PG
100
AcDbPolyline
 90
       10
 70
     1
 43
0.0
 10
281829.1068000002
 20
5052259.687799999
 10
281837.0443000002
 20
5052266.3024
 10
281840.4839000003
 20
5052263.1274
 10
281839.4254999999
 20
5052262.069
 10
281844.1880000001
 20
5052257.0419
 10
281845.5109999999
 20
5052258.100299999
 10
281849.4797
 20
5052254.1315
 10
281839.9546999997
 20
5052244.6065
 10
281830.6942999996
 20
5052254.3961
 10
281832.5462999996
 20
5052255.9836
  0
LWPOLYLINE
  5
114
330
1F
100
AcDbEntity
  8
BAT_PATRIMONIAL_L2000_PG
100
AcDbPolyline
 90
        8
 70
     1
 43
0.0
 10
281891.3103999998
 20
5052262.9157
 10
281900.5707999999
 20
5052264.5033
 10
281902.4228999997
 20
5052254.1845
 10
281900.5707999999
 20
5052254.1845
 10
281901.0999999996
 20
5052248.363600001
 10
281896.0729
 20
5052247.8345
 10
281895.2791999998
 20
5052252.8616
 10
281892.8979000002
 20
5052252.596999999
  0
LWPOLYLINE
  5
115
330
1F
100
AcDbEntity
  8
BAT_PATRIMONIAL_L2000_PG
100
AcDbPolyline
 90
        6
 70
     1
 43
0.0
 10
281968.0132999998
 20
5052311.8638
 10
281981.5071
 20
5052314.244999999
 10
281982.3008000003
 20
5052310.011700001
 10
281978.8612000002
 20
5052309.217900001
 10
281979.1257999996
 20
5052306.307499999
 10
281969.0716000004
 20
5052304.455399999
  0
LWPOLYLINE
  5
116
330
1F
100
AcDbEntity
  8
BAT_PATRIMONIAL_L2000_PG
100
AcDbPolyline
 90
        8
 70
     1
 43
0.0
 10
281971.6381000001
 20
5052300.036900001
 10
281981.1630999995
 20
5052301.624399999
 10
281981.1630999995
 20
5052300.830600001
 10
281984.3381000003
 20
5052301.3598
 10
281985.3964
 20
5052297.9202
 10
281982.2214000002
 20
5052297.126499999
 10
281983.5443000002
 20
5052291.5702
 10
281973.4901999999
 20
5052289.9827
  0
LWPOLYLINE
  5
117
330
1F
100
AcDbEntity
  8
BAT_PATRIMONIAL_L2000_PG
100
AcDbPolyline
 90
        4
 70
     1
 43
0.0
 10
281983.6237000003
 20
5052247.6227
 10
281995.0007999996
 20
5052249.4748
 10
281996.5882999999
 20
5052240.214400001
 10
281985.2111999998
 20
5052238.362299999
  0
LWPOLYLINE
  5
118
330
1F
100
AcDbEntity
  8
BAT_PATRIMONIAL_L2000_PG
100
AcDbPolyline
 90
        8
 70
     1
 43
0.0
 10
281983.7030999996
 20
5052230.9275
 10
281985.8197999997
 20
5052231.1921
 10
281985.8197999997
 20
5052232.250499999
 10
281995.3448000001
 20
5052234.102499999
 10
281996.6677000001
 20
5052228.2817
 10
281990.8469000002
 20
5052226.6942
 10
281991.1114999996
 20
5052224.8421
 10
281985.0259999996
 20
5052223.7838
  0
LWPOLYLINE
  5
119
330
1F
100
AcDbEntity
  8
BAT_PATRIMONIAL_L2000_PG
100
AcDbPolyline
 90
        8
 70
     1
 43
0.0
 10
281991.8257999998
 20
5052185.9483
 10
282006.1134000001
 20
5052188.5941
 10
282006.6425000001
 20
5052186.477399999
 10
282011.9342
 20
5052187.535800001
 10
282012.7280000001
 20
5052183.831599999
 10
282007.9654000001
 20
5052182.5087
 10
282008.2300000004
 20
5052180.1274
 10
281993.1486999998
 20
5052176.952400001
  0
LWPOLYLINE
  5
11A
330
1F
100
AcDbEntity
  8
BAT_PATRIMONIAL_L2000_PG
100
AcDbPolyline
 90
       10
 70
     1
 43
0.0
 10
282022.8880000003
 20
5052169.808700001
 10
282026.5921
 20
5052170.602399999
 10
282027.9150999999
 20
5052165.310699999
 10
282036.9108999996
 20
5052166.104499999
 10
282038.7630000003
 20
5052157.1086
 10
282030.0317000002
 20
5052155.2565
 10
282029.5026000002
 20
5052158.166999999
 10
282026.8567000004
 20
5052157.373199999
 10
282025.7983999997
 20
5052162.1357
 10
282024.2109000003
 20
5052161.6066
  0
LWPOLYLINE
  5
11B
330
1F
100
AcDbEntity
  8
BAT_PATRIMONIAL_L2000_PG
100
AcDbPolyline
 90
        6
 70
     1
 43
0.0
 10
282031.3282000003
 20
5052131.444
 10
282042.7052999996
 20
5052133.560699999
 10
282044.5574000003
 20
5052125.094000001
 10
282036.0906999996
 20
5052123.5065
 10
282035.8261000002
 20
5052124.5648
 10
282032.3865
 20
5052124.5648
  0
LWPOLYLINE
  5
11C
330
1F
100
AcDbEntity
  8
BAT_PATRIMONIAL_L2000_PG
100
AcDbPolyline
 90
        6
 70
     1
 43
0.0
 10
282036.9108999996
 20
5052102.868899999
 10
282046.9650999997
 20
5052104.721000001
 10
282048.2879999997
 20
5052095.989800001
 10
282043.5255000005
 20
5052094.931399999
 10
282044.3192999996
 20
5052090.9627
 10
282039.5566999996
 20
5052089.904300001
  0
LWPOLYLINE
  5
11D
330
1F
100
AcDbEntity
  8
BAT_PATRIMONIAL_L2000_PG
100
AcDbPolyline
 90
        8
 70
     1
 43
0.0
 10
282081.3609999996
 20
5052096.783500001
 10
282091.6798
 20
5052098.635600001
 10
282091.6798
 20
5052097.8419
 10
282094.3256000001
 20
5052097.8419
 10
282095.1194000002
 20
5052093.8731
 10
282093.0027000001
 20
5052093.8731
 10
282093.5318
 20
5052089.904300001
 10
282082.6838999996
 20
5052087.787699999
  0
LWPOLYLINE
  5
11E
330
1F
100
AcDbEntity
  8
BAT_PATRIMONIAL_L2000_PG
100
AcDbPolyline
 90
        6
 70
     1
 43
0.0
 10
282071.4375
 20
5052140.8982
 10
282081.6571000004
 20
5052142.7489
 10
282083.0311000003
 20
5052135.1669
 10
282077.1386000002
 20
5052133.534299999
 10
282076.9009999996
 20
5052134.4845
 10
282072.3876999998
 20
5052133.7719
  0
LWPOLYLINE
  5
11F
330
1F
100
AcDbEntity
  8
BAT_PATRIMONIAL_L2000_PG
100
AcDbPolyline
 90
        8
 70
     1
 43
0.0
 10
282068.0220999997
 20
5052150.6516
 10
282074.7000000002
 20
5052151.775900001
 10
282074.1908
 20
5052153.4574
 10
282077.8949999996
 20
5052154.515699999
 10
282079.4879999999
 20
5052148.065400001
 10
282075.6958999997
 20
5052147.411599999
 10
282076.1583000002
 20
5052144.939200001
 10
282069.5537999999
 20
5052143.452400001
  0
LWPOLYLINE
  5
120
330
1F
100
AcDbEntity
  8
BAT_PATRIMONIAL_L2000_PG
100
AcDbPolyline
 90
        8
 70
     1
 43
0.0
 10
282086.0970999999
 20
5052438.8904
 10
282095.6221000003
 20
5052444.9759
 10
282100.3846000005
 20
5052436.509199999
 10
282097.2095999997
 20
5052434.657099999
 10
282099.8553999998
 20
5052429.630000001
 10
282092.4471000005
 20
5052425.132099999
 10
282089.0075000003
 20
5052430.688300001
 10
282090.3304000003
 20
5052430.688300001
  0
LWPOLYLINE
  5
121
330
1F
100
AcDbEntity
  8
BAT_PATRIMONIAL_L2000_PG
100
AcDbPolyline
 90
        8
 70
     1
 43
0.0
 10
282148.9885
 20
5052479.1866
 10
282158.2489999998
 20
5052481.038699999
 10
282160.3656000001
 20
5052469.661599999
 10
282158.7780999998
 20
5052468.867900001
 10
282159.5718999999
 20
5052464.8991
 10
282154.2801999999
 20
5052463.576199999
 10
282153.4864999996
 20
5052467.5449
 10
282150.8405999998
 20
5052467.280400001
  0
LWPOLYLINE
  5
122
330
1F
100
AcDbEntity
  8
BAT_PATRIMONIAL_L2000_PG
100
AcDbPolyline
 90
        6
 70
     1
 43
0.0
 10
282181.7970000003
 20
5052488.8704
 10
282189.7346000001
 20
5052490.193299999
 10
282192.3804000001
 20
5052476.170299999
 10
282185.7658000002
 20
5052475.112
 10
282184.9720000001
 20
5052479.874500001
 10
282183.3844999997
 20
5052479.6099
  0
LWPOLYLINE
  5
123
330
1F
100
AcDbEntity
  8
BAT_PATRIMONIAL_L2000_PG
100
AcDbPolyline
 90
        4
 70
     1
 43
0.0
 10
282236.0103000002
 20
5052474.0801
 10
282249.2395000001
 20
5052476.461300001
 10
282251.3562000003
 20
5052466.407199999
 10
282237.8624
 20
5052464.2905
  0
LWPOLYLINE
  5
124
330
1F
100
AcDbEntity
  8
BAT_PATRIMONIAL_L2000_PG
100
AcDbPolyline
 90
        6
 70
     1
 43
0.0
 10
282240.0849000001
 20
5052457.675899999
 10
282255.1661999999
 20
5052460.321699999
 10
282257.0181999998
 20
5052450.532099999
 10
282254.9016000004
 20
5052450.2676
 10
282255.1661999999
 20
5052448.4155
 10
282242.2015000004
 20
5052446.0342
  0
LWPOLYLINE
  5
125
330
1F
100
AcDbEntity
  8
BAT_PATRIMONIAL_L2000_PG
100
AcDbPolyline
 90
        4
 70
     1
 43
0.0
 10
282313.3745999997
 20
5052484.927999999
 10
282326.0745999999
 20
5052487.0447
 10
282327.9266999997
 20
5052478.842599999
 10
282314.6974999998
 20
5052476.196799999
  0
LWPOLYLINE
  5
126
330
1F
100
AcDbEntity
  8
BAT_PATRIMONIAL_L2000_PG
100
AcDbPolyline
 90
       10
 70
     1
 43
0.0
 10
282225.3476
 20
5052549.063100001
 10
282230.9038000004
 20
5052551.444399999
 10
282229.8454999998
 20
5052554.0902
 10
282233.2851
 20
5052556.206900001
 10
282234.608
 20
5052553.296499999
 10
282237.2538000001
 20
5052554.0902
 10
282240.1643000003
 20
5052546.417300001
 10
282241.7517999997
 20
5052546.9465
 10
282243.0746999998
 20
5052544.036
 10
282230.1101000002
 20
5052537.9506
  0
LWPOLYLINE
  5
127
330
1F
100
AcDbEntity
  8
BAT_PATRIMONIAL_L2000_PG
100
AcDbPolyline
 90
        8
 70
     1
 43
0.0
 10
282269.1891000001
 20
5052538.1094
 10
282282.1536999997
 20
5052545.2532
 10
282290.3558
 20
5052530.965600001
 10
282286.3870999999
 20
5052528.319800001
 10
282281.8891000003
 20
5052535.992699999
 10
282278.4495000001
 20
5052533.8761
 10
282282.1536999997
 20
5052526.467700001
 10
282277.1266000001
 20
5052523.2927
  0
LWPOLYLINE
  5
128
330
1F
100
AcDbEntity
  8
BAT_PATRIMONIAL_L2000_PG
100
AcDbPolyline
 90
        8
 70
     1
 43
0.0
 10
282291.0437000003
 20
5052541.4432
 10
282293.6896000002
 20
5052541.707800001
 10
282293.1604000004
 20
5052544.089
 10
282296.5999999996
 20
5052544.8828
 10
282297.3937999997
 20
5052542.766100001
 10
282301.3624999998
 20
5052543.8244
 10
282305.5959000001
 20
5052529.536900001
 10
282295.2770999996
 20
5052526.3619
  0
LWPOLYLINE
  5
129
330
1F
100
AcDbEntity
  8
BAT_PATRIMONIAL_L2000_PG
100
AcDbPolyline
 90
        4
 70
     1
 43
0.0
 10
282279.8254000004
 20
5052583.247400001
 10
282290.9379000003
 20
5052585.628699999
 10
282292.5253999997
 20
5052575.309900001
 10
282281.6775000002
 20
5052573.1932
  0
LWPOLYLINE
  5
12A
330
1F
100
AcDbEntity
  8
BAT_PATRIMONIAL_L2000_PG
100
AcDbPolyline
 90
       14
 70
     1
 43
0.0
 10
282316.6553999996
 20
5052551.285599999
 10
282319.5658999998
 20
5052551.5502
 10
282319.3013000004
 20
5052554.1961
 10
282324.5928999996
 20
5052555.518999999
 10
282324.5928999996
 20
5052553.4023
 10
282331.4720999999
 20
5052554.4606
 10
282334.3825000003
 20
5052544.671
 10
282332.5305000003
 20
5052544.406500001
 10
282335.7055000002
 20
5052528.531400001
 10
282330.6783999996
 20
5052527.473099999
 10
282328.0324999997
 20
5052540.4377
 10
282324.5928999996
 20
5052539.6439
 10
282324.5928999996
 20
5052536.468900001
 10
282320.3596000001
 20
5052535.6752
  0
LWPOLYLINE
  5
12B
330
1F
100
AcDbEntity
  8
BAT_PATRIMONIAL_L2000_PG
100
AcDbPolyline
 90
        6
 70
     1
 43
0.0
 10
282336.7110000001
 20
5052568.351199999
 10
282350.4693
 20
5052570.7325
 10
282353.9089000002
 20
5052556.974099999
 10
282343.8547
 20
5052554.592900001
 10
282342.2671999997
 20
5052562.0012
 10
282338.0339000002
 20
5052561.472100001
  0
LWPOLYLINE
  5
12C
330
1F
100
AcDbEntity
  8
BAT_PATRIMONIAL_L2000_PG
100
AcDbPolyline
 90
        6
 70
     1
 43
0.0
 10
282351.21
 20
5052610.499600001
 10
282343.5371000003
 20
5052604.149599999
 10
282337.1870999997
 20
5052612.087099999
 10
282339.5684000002
 20
5052614.2038
 10
282337.4517000001
 20
5052618.437100001
 10
282341.9495999999
 20
5052622.4059
  0
LWPOLYLINE
  5
12D
330
1F
100
AcDbEntity
  8
BAT_PATRIMONIAL_L2000_PG
100
AcDbPolyline
 90
        5
 70
     1
 43
0.0
 10
282341.4556999998
 20
5052662.5483
 10
282349.7900999999
 20
5052667.548900001
 10
282357.1720000003
 20
5052672.0733
 10
282366.3973000003
 20
5052657.436699999
 10
282349.7285000002
 20
5052647.6471
  0
LWPOLYLINE
  5
12E
330
1F
100
AcDbEntity
  8
BAT_PATRIMONIAL_L2000_PG
100
AcDbPolyline
 90
       15
 70
     1
 43
0.0
 10
282387.3874000004
 20
5052730.202400001
 10
282386.1968
 20
5052733.2981
 10
282385.0061999997
 20
5052739.2512
 10
282378.8148999996
 20
5052750.4431
 10
282391.9117999999
 20
5052758.5394
 10
282398.8174000001
 20
5052748.300000001
 10
282400.0081000002
 20
5052747.519400001
 10
282401.4896999998
 20
5052746.884400001
 10
282402.7597000003
 20
5052745.2969
 10
282403.5799000002
 20
5052744.251800001
 10
282404.6646999996
 20
5052741.6986
 10
282409.2155999998
 20
5052744.238600001
 10
282424.5350000001
 20
5052720.201199999
 10
282428.1069
 20
5052715.4386
 10
282406.0928999996
 20
5052701.572000001
  0
LWPOLYLINE
  5
12F
330
1F
100
AcDbEntity
  8
BAT_PATRIMONIAL_L2000_PG
100
AcDbPolyline
 90
        4
 70
     1
 43
0.0
 10
282451.2227999996
 20
5052678.603399999
 10
282458.4017000003
 20
5052687.062000001
 10
282468.1383999996
 20
5052678.3837
 10
282460.4831999997
 20
5052669.6076
  0
LWPOLYLINE
  5
130
330
1F
100
AcDbEntity
  8
BAT_PATRIMONIAL_L2000_PG
100
AcDbPolyline
 90
        8
 70
     1
 43
0.0
 10
282470.8020000001
 20
5052684.4243
 10
282456.7790999999
 20
5052696.330499999
 10
282459.6895000003
 20
5052700.2993
 10
282458.102
 20
5052702.1514
 10
282471.8602999998
 20
5052717.7618
 10
282479.7978999997
 20
5052710.0889
 10
282471.8602999998
 20
5052701.3576
 10
282479.7978999997
 20
5052693.684699999
  0
LWPOLYLINE
  5
131
330
1F
100
AcDbEntity
  8
BAT_PATRIMONIAL_L2000_PG
100
AcDbPolyline
 90
        6
 70
     1
 43
0.0
 10
282494.7468999997
 20
5052741.9712
 10
282502.6843999997
 20
5052749.3796
 10
282509.2989999996
 20
5052742.765000001
 10
282505.0656000003
 20
5052738.7962
 10
282505.8594000004
 20
5052738.002499999
 10
282502.6843999997
 20
5052734.2983
  0
LWPOLYLINE
  5
132
330
1F
100
AcDbEntity
  8
BAT_PATRIMONIAL_L2000_PG
100
AcDbPolyline
 90
       10
 70
     1
 43
0.0
 10
282508.3074000003
 20
5052757.879000001
 10
282519.6845000004
 20
5052769.5207
 10
282528.9448999995
 20
5052760.7894
 10
282527.3574000001
 20
5052759.2019
 10
282531.8553999998
 20
5052754.4394
 10
282528.9448999995
 20
5052750.9998
 10
282526.5636999998
 20
5052753.6457
 10
282521.5366000002
 20
5052748.354
 10
282520.4782999996
 20
5052749.4123
 10
282518.3616000004
 20
5052747.5602
  0
LWPOLYLINE
  5
133
330
1F
100
AcDbEntity
  8
BAT_PATRIMONIAL_L2000_PG
100
AcDbPolyline
 90
       10
 70
     1
 43
0.0
 10
282602.3002000004
 20
5052680.9847
 10
282607.3273
 20
5052682.043
 10
282606.5334999999
 20
5052684.688899999
 10
282615.2648
 20
5052686.805500001
 10
282617.6459999997
 20
5052676.4868
 10
282611.0314999996
 20
5052674.8993
 10
282611.2960000001
 20
5052672.517999999
 10
282606.5334999999
 20
5052671.4597
 10
282606.2688999996
 20
5052673.576300001
 10
282603.6231000004
 20
5052673.311799999
  0
LWPOLYLINE
  5
134
330
1F
100
AcDbEntity
  8
BAT_PATRIMONIAL_L2000_PG
100
AcDbPolyline
 90
        7
 70
     1
 43
0.0
 10
282556.2626
 20
5052807.7732
 10
282563.1418000003
 20
5052801.4232
 10
282563.4063999997
 20
5052794.808599999
 10
282559.9667999996
 20
5052794.544
 10
282559.4375999998
 20
5052799.5711
 10
282556.7917999998
 20
5052796.9253
 10
282551.2355000004
 20
5052802.4816
  0
LWPOLYLINE
  5
135
330
1F
100
AcDbEntity
  8
BAT_PATRIMONIAL_L2000_PG
100
AcDbPolyline
 90
       14
 70
     1
 43
0.0
 10
282584.4671999998
 20
5052812.482899999
 10
282596.9027000004
 20
5052816.7162
 10
282600.8713999996
 20
5052809.5724
 10
282598.7548000002
 20
5052808.7787
 10
282601.6651999997
 20
5052802.4287
 10
282599.5484999996
 20
5052801.899499999
 10
282602.1944000004
 20
5052796.607799999
 10
282598.7548000002
 20
5052794.4912
 10
282596.1089000003
 20
5052800.0474
 10
282597.6963999998
 20
5052800.5766
 10
282595.8443
 20
5052804.0162
 10
282593.9923
 20
5052803.2224
 10
282592.6693000002
 20
5052804.809900001
 10
282589.4943000004
 20
5052803.2224
  0
LWPOLYLINE
  5
136
330
1F
100
AcDbEntity
  8
BAT_PATRIMONIAL_L2000_PG
100
AcDbPolyline
 90
       14
 70
     1
 43
0.0
 10
282604.4168999996
 20
5052854.022500001
 10
282607.8563999999
 20
5052857.7267
 10
282606.2688999996
 20
5052859.314200001
 10
282609.7084999997
 20
5052863.0184
 10
282610.5022999998
 20
5052861.960000001
 10
282613.6772999996
 20
5052865.399599999
 10
282616.5877
 20
5052862.753799999
 10
282618.7044000002
 20
5052864.8705
 10
282623.7314999998
 20
5052860.6371
 10
282622.4085999997
 20
5052859.0496
 10
282626.3772999998
 20
5052855.0809
 10
282622.1440000003
 20
5052850.582900001
 10
282618.9689999996
 20
5052854.022500001
 10
282611.8251999998
 20
5052846.6142
  0
LWPOLYLINE
  5
137
330
1F
100
AcDbEntity
  8
BAT_PATRIMONIAL_L2000_PG
100
AcDbPolyline
 90
        4
 70
     1
 43
0.0
 10
288718.0061999997
 20
5057013.258400001
 10
288729.8065999998
 20
5057015.7984
 10
288731.7116
 20
5057006.749600001
 10
288719.7259999998
 20
5057004.262499999
  0
LWPOLYLINE
  5
138
330
1F
100
AcDbEntity
  8
BAT_PATRIMONIAL_L2000_PG
100
AcDbPolyline
 90
       10
 70
     1
 43
0.0
 10
289550.6516000004
 20
5057013.523
 10
289560.7057999996
 20
5057012.5308
 10
289561.2348999996
 20
5057022.0558
 10
289568.3787000002
 20
5057021.328199999
 10
289567.0558000002
 20
5057009.885
 10
289565.4682999998
 20
5057009.885
 10
289564.9391000001
 20
5057006.247
 10
289560.1765999999
 20
5057006.710000001
 10
289559.9119999995
 20
5057003.072000001
 10
289550.1223999998
 20
5057004.064099999
  0
LWPOLYLINE
  5
139
330
1F
100
AcDbEntity
  8
BAT_PATRIMONIAL_L2000_PG
100
AcDbPolyline
 90
        4
 70
     1
 43
0.0
 10
293471.074
 20
5052201.9429
 10
293483.2183999997
 20
5052203.1336
 10
293484.1709000003
 20
5052194.322899999
 10
293472.0264999997
 20
5052193.3704
  0
LWPOLYLINE
  5
13A
330
1F
100
AcDbEntity
  8
BAT_PATRIMONIAL_L2000_PG
100
AcDbPolyline
 90
        6
 70
     1
 43
0.0
 10
293513.2221999997
 20
5052204.7642
 10
293518.4609000003
 20
5052204.5261
 10
293518.6990999999
 20
5052207.145500001
 10
293527.7478
 20
5052207.145500001
 10
293527.9859999996
 20
5052194.524800001
 10
293513.2221999997
 20
5052194.763
  0
LWPOLYLINE
  5
13B
330
1F
100
AcDbEntity
  8
BAT_PATRIMONIAL_L2000_PG
100
AcDbPolyline
 90
        8
 70
     1
 43
0.0
 10
293466.3731000004
 20
5052262.4661
 10
293471.1355999997
 20
5052262.228
 10
293471.1355999997
 20
5052261.0374
 10
293481.8513000002
 20
5052260.7992
 10
293482.0893999999
 20
5052254.1317
 10
293468.7544
 20
5052253.6555
 10
293468.7544
 20
5052258.418
 10
293466.6112000002
 20
5052258.418
  0
LWPOLYLINE
  5
13C
330
1F
100
AcDbEntity
  8
BAT_PATRIMONIAL_L2000_PG
100
AcDbPolyline
 90
        4
 70
     1
 43
0.0
 10
293500.2401000001
 20
5052267.3126
 10
293511.9082000004
 20
5052267.788899999
 10
293512.6226000004
 20
5052254.215700001
 10
293500.7164000003
 20
5052254.4538
  0
LWPOLYLINE
  5
13D
330
1F
100
AcDbEntity
  8
BAT_PATRIMONIAL_L2000_PG
100
AcDbPolyline
 90
       10
 70
     1
 43
0.0
 10
293500.9852999998
 20
5052375.421599999
 10
293510.7483999999
 20
5052375.659700001
 10
293510.9866000004
 20
5052371.135299999
 10
293514.7966
 20
5052370.421
 10
293515.2728000004
 20
5052362.0866
 10
293516.9397
 20
5052362.0866
 10
293516.9397
 20
5052355.1809
 10
293509.3196999999
 20
5052354.704700001
 10
293509.3196999999
 20
5052356.6097
 10
293501.6996999998
 20
5052356.8478
  0
LWPOLYLINE
  5
13E
330
1F
100
AcDbEntity
  8
BAT_PATRIMONIAL_L2000_PG
100
AcDbPolyline
 90
        8
 70
     1
 43
0.0
 10
293469.2306000004
 20
5052412.653200001
 10
293469.2306000004
 20
5052414.081900001
 10
293464.9444000004
 20
5052414.081900001
 10
293464.2300000004
 20
5052421.7019
 10
293469.9450000003
 20
5052421.7019
 10
293469.9450000003
 20
5052420.749399999
 10
293477.5650000004
 20
5052420.2732
 10
293477.8031000001
 20
5052412.8913
  0
LWPOLYLINE
  5
13F
330
1F
100
AcDbEntity
  8
BAT_PATRIMONIAL_L2000_PG
100
AcDbPolyline
 90
       12
 70
     1
 43
0.0
 10
293515.5417999998
 20
5052422.6853
 10
293515.3037
 20
5052420.542099999
 10
293517.2087000003
 20
5052420.304
 10
293517.4468
 20
5052417.922700001
 10
293516.2561999997
 20
5052417.922700001
 10
293516.0180000002
 20
5052415.7796
 10
293500.7779999999
 20
5052415.303400001
 10
293500.7779999999
 20
5052416.732100001
 10
293499.1111000003
 20
5052416.732100001
 10
293498.8729999997
 20
5052421.2565
 10
293501.0160999997
 20
5052421.2565
 10
293501.0160999997
 20
5052422.9234
  0
LWPOLYLINE
  5
140
330
1F
100
AcDbEntity
  8
BAT_PATRIMONIAL_L2000_PG
100
AcDbPolyline
 90
       10
 70
     1
 43
0.0
 10
293501.7304999996
 20
5052427.2096
 10
293501.9686000003
 20
5052428.6384
 10
293499.8255000003
 20
5052428.6384
 10
293499.5873999996
 20
5052433.639
 10
293500.7779999999
 20
5052433.400900001
 10
293500.7779999999
 20
5052435.0678
 10
293515.3037
 20
5052435.3059
 10
293515.5417999998
 20
5052430.0671
 10
293517.6848999998
 20
5052430.0671
 10
293517.4468
 20
5052427.447799999
  0
LWPOLYLINE
  5
141
330
1F
100
AcDbEntity
  8
BAT_PATRIMONIAL_L2000_PG
100
AcDbPolyline
 90
        8
 70
     1
 43
0.0
 10
293495.3010999998
 20
5052458.9112
 10
293511.7318000002
 20
5052459.1493
 10
293511.6825000001
 20
5052449.878599999
 10
293507.4288999997
 20
5052449.857799999
 10
293507.4455000004
 20
5052450.8149
 10
293501.4923999999
 20
5052450.8149
 10
293501.4923999999
 20
5052451.529300001
 10
293495.3010999998
 20
5052451.529300001
  0
LWPOLYLINE
  5
142
330
1F
100
AcDbEntity
  8
BAT_PATRIMONIAL_L2000_PG
100
AcDbPolyline
 90
        4
 70
     1
 43
0.0
 10
293493.8107000003
 20
5052473.820599999
 10
293501.9069999997
 20
5052473.820599999
 10
293501.9069999997
 20
5052465.486199999
 10
293493.8107000003
 20
5052465.2481
  0
LWPOLYLINE
  5
143
330
1F
100
AcDbEntity
  8
BAT_PATRIMONIAL_L2000_PG
100
AcDbPolyline
 90
        4
 70
     1
 43
0.0
 10
293465.3590000002
 20
5052453.7256
 10
293476.5509000001
 20
5052453.7256
 10
293476.7801000001
 20
5052441.633099999
 10
293465.1207999997
 20
5052441.5812
  0
LWPOLYLINE
  5
144
330
1F
100
AcDbEntity
  8
BAT_PATRIMONIAL_L2000_PG
100
AcDbPolyline
 90
        6
 70
     1
 43
0.0
 10
293468.4238
 20
5052473.436799999
 10
293475.8057000004
 20
5052473.436799999
 10
293475.8057000004
 20
5052469.8649
 10
293478.1869000001
 20
5052469.388699999
 10
293478.1869000001
 20
5052460.1018
 10
293468.6618999997
 20
5052460.1018
  0
LWPOLYLINE
  5
145
330
1F
100
AcDbEntity
  8
BAT_PATRIMONIAL_L2000_PG
100
AcDbPolyline
 90
        6
 70
     1
 43
0.0
 10
293496.6766999997
 20
5052507.4889
 10
293508.1067000004
 20
5052507.4889
 10
293508.1067000004
 20
5052502.012
 10
293505.7254999997
 20
5052502.012
 10
293505.7254999997
 20
5052496.7732
 10
293496.4386
 20
5052497.011299999
  0
LWPOLYLINE
  5
146
330
1F
100
AcDbEntity
  8
BAT_PATRIMONIAL_L2000_PG
100
AcDbPolyline
 90
        4
 70
     1
 43
0.0
 10
293490.8383999998
 20
5052550.1972
 10
293499.4108999996
 20
5052550.1972
 10
293499.4108999996
 20
5052539.2434
 10
293490.8383999998
 20
5052539.0053
  0
LWPOLYLINE
  5
147
330
1F
100
AcDbEntity
  8
BAT_PATRIMONIAL_L2000_PG
100
AcDbPolyline
 90
       10
 70
     1
 43
0.0
 10
293473.6933000004
 20
5052532.399499999
 10
293457.7389000002
 20
5052531.9232
 10
293457.7389000002
 20
5052533.5901
 10
293456.3102000002
 20
5052533.5901
 10
293456.0721000005
 20
5052532.1613
 10
293453.6908
 20
5052532.399499999
 10
293452.9764
 20
5052540.0195
 10
293455.1195999999
 20
5052540.0195
 10
293454.8814000003
 20
5052542.162599999
 10
293473.4551999997
 20
5052542.162599999
  0
LWPOLYLINE
  5
148
330
1F
100
AcDbEntity
  8
BAT_PATRIMONIAL_L2000_PG
100
AcDbPolyline
 90
       14
 70
     1
 43
0.0
 10
293453.5143999998
 20
5052572.4969
 10
293455.4194
 20
5052579.4025
 10
293459.7056999998
 20
5052577.021299999
 10
293464.2301000003
 20
5052577.021299999
 10
293464.2301000003
 20
5052575.592499999
 10
293471.8501000004
 20
5052575.592499999
 10
293471.8501000004
 20
5052567.02
 10
293464.4682
 20
5052567.258099999
 10
293464.2301000003
 20
5052569.6394
 10
293459.7056999998
 20
5052569.6394
 10
293459.7056999998
 20
5052572.4969
 10
293457.0862999996
 20
5052572.4969
 10
293457.0862999996
 20
5052571.306299999
 10
293454.7050999999
 20
5052571.306299999
  0
LWPOLYLINE
  5
149
330
1F
100
AcDbEntity
  8
BAT_PATRIMONIAL_L2000_PG
100
AcDbPolyline
 90
        4
 70
     1
 43
0.0
 10
293497.9205
 20
5052578.564999999
 10
293501.0160999997
 20
5052586.185000001
 10
293519.1136999996
 20
5052578.3268
 10
293516.2561999997
 20
5052570.706800001
  0
LWPOLYLINE
  5
14A
330
1F
100
AcDbEntity
  8
BAT_PATRIMONIAL_L2000_PG
100
AcDbPolyline
 90
        6
 70
     1
 43
0.0
 10
287387.4091999996
 20
5056488.1084
 10
287394.3148999996
 20
5056490.0134
 10
287394.3148999996
 20
5056491.4421
 10
287396.9342999998
 20
5056492.3946
 10
287400.9824000001
 20
5056480.726500001
 10
287390.6984999999
 20
5056477.367900001
  0
LWPOLYLINE
  5
14B
330
1F
100
AcDbEntity
  8
BAT_PATRIMONIAL_L2000_PG
100
AcDbPolyline
 90
       12
 70
     1
 43
0.0
 10
285879.1413000003
 20
5057899.6011
 10
285884.4330000002
 20
5057905.527799999
 10
285882.3163000001
 20
5057907.8561
 10
285890.7829999998
 20
5057916.957800001
 10
285892.4763000002
 20
5057915.2645
 10
285894.8046000004
 20
5057918.016100001
 10
285899.4612999996
 20
5057913.9945
 10
285892.0530000003
 20
5057905.527799999
 10
285892.2646000003
 20
5057904.6811
 10
285890.148
 20
5057901.294399999
 10
285892.0530000003
 20
5057899.3894
 10
285885.7029999997
 20
5057892.8278
  0
LWPOLYLINE
  5
14C
330
1F
100
AcDbEntity
  8
BAT_PATRIMONIAL_L2000_PG
100
AcDbPolyline
 90
        6
 70
     1
 43
0.0
 10
285929.2005000003
 20
5058091.371400001
 10
285923.2739000004
 20
5058096.028100001
 10
285923.9089000002
 20
5058096.8748
 10
285922.2154999999
 20
5058098.5681
 10
285926.8722000001
 20
5058105.129799999
 10
285935.1272
 20
5058098.9915
  0
LWPOLYLINE
  5
14D
330
1F
100
AcDbEntity
  8
BAT_PATRIMONIAL_L2000_PG
100
AcDbPolyline
 90
        4
 70
     1
 43
0.0
 10
286058.0528999995
 20
5058096.5573
 10
286065.4612999996
 20
5058107.352299999
 10
286073.9280000003
 20
5058101.848999999
 10
286066.7048000004
 20
5058090.908500001
  0
LWPOLYLINE
  5
14E
330
1F
100
AcDbEntity
  8
BAT_PATRIMONIAL_L2000_PG
100
AcDbPolyline
 90
        6
 70
     1
 43
0.0
 10
286094.7770999996
 20
5058151.2733
 10
286101.6827999996
 20
5058159.660599999
 10
286110.5728000002
 20
5058152.4639
 10
286109.3027999997
 20
5058150.9822
 10
286112.0544999996
 20
5058148.653899999
 10
286106.1013000002
 20
5058141.536599999
  0
LWPOLYLINE
  5
14F
330
1F
100
AcDbEntity
  8
BAT_PATRIMONIAL_L2000_PG
100
AcDbPolyline
 90
        4
 70
     1
 43
0.0
 10
288159.6019000001
 20
5056797.529899999
 10
288168.2802999998
 20
5056800.599099999
 10
288171.6668999996
 20
5056790.7169
 10
288162.8563000001
 20
5056787.621300001
  0
LWPOLYLINE
  5
150
330
1F
100
AcDbEntity
  8
BAT_PATRIMONIAL_L2000_PG
100
AcDbPolyline
 90
        4
 70
     1
 43
0.0
 10
288335.3120999997
 20
5056840.299900001
 10
288343.6464999998
 20
5056843.157400001
 10
288346.7421000004
 20
5056833.8705
 10
288338.3547999999
 20
5056831.2115
  0
LWPOLYLINE
  5
151
330
1F
100
AcDbEntity
  8
BAT_PATRIMONIAL_L2000_PG
100
AcDbPolyline
 90
        4
 70
     1
 43
0.0
 10
288458.8197999997
 20
5056926.977600001
 10
288469.7736
 20
5056929.596999999
 10
288471.9431999996
 20
5056920.217499999
 10
288461.2539999997
 20
5056917.2541
  0
LWPOLYLINE
  5
152
330
1F
100
AcDbEntity
  8
BAT_PATRIMONIAL_L2000_PG
100
AcDbPolyline
 90
        4
 70
     1
 43
0.0
 10
288638.2869999995
 20
5057039.505100001
 10
288646.6213999996
 20
5057042.124500001
 10
288649.4789000005
 20
5057032.969900001
 10
288641.2768000001
 20
5057029.927200001
  0
LWPOLYLINE
  5
153
330
1F
100
AcDbEntity
  8
BAT_PATRIMONIAL_L2000_PG
100
AcDbPolyline
 90
        6
 70
     1
 43
0.0
 10
282869.5651000002
 20
5053245.0561
 10
282878.6138000004
 20
5053250.533
 10
282885.0432000002
 20
5053240.2936
 10
282881.6830000002
 20
5053237.661
 10
282883.3762999997
 20
5053235.0548
 10
282878.1376
 20
5053231.482999999
  0
LWPOLYLINE
  5
154
330
1F
100
AcDbEntity
  8
BAT_PATRIMONIAL_L2000_PG
100
AcDbPolyline
 90
        8
 70
     1
 43
0.0
 10
282664.0651000002
 20
5052912.306600001
 10
282670.3822999997
 20
5052917.8051
 10
282677.9530999996
 20
5052909.2696
 10
282676.0993999997
 20
5052907.684
 10
282678.3552999999
 20
5052905.006899999
 10
282675.983
 20
5052903.060799999
 10
282673.9802999999
 20
5052905.3048
 10
282671.8618000001
 20
5052903.4548
  0
LWPOLYLINE
  5
155
330
1F
100
AcDbEntity
  8
BAT_PATRIMONIAL_L2000_PG
100
AcDbPolyline
 90
        4
 70
     1
 43
0.0
 10
293414.4759
 20
5052576.347999999
 10
293409.8191999998
 20
5052570.275900001
 10
293400.1884000003
 20
5052577.8694
 10
293405.1890000002
 20
5052583.9813
  0
LWPOLYLINE
  5
156
330
1F
100
AcDbEntity
  8
BAT_PATRIMONIAL_L2000_PG
100
AcDbPolyline
 90
        6
 70
     1
 43
0.0
 10
293432.0177999996
 20
5052575.170700001
 10
293438.5000999998
 20
5052583.319800001
 10
293444.4267999995
 20
5052578.8748
 10
293440.1670000004
 20
5052573.503799999
 10
293438.3148999996
 20
5052574.985400001
 10
293436.1716999998
 20
5052572.114700001
  0
LWPOLYLINE
  5
157
330
1F
100
AcDbEntity
  8
BAT_PATRIMONIAL_L2000_PG
100
AcDbPolyline
 90
        4
 70
     1
 43
0.0
 10
293433.9491999997
 20
5052533.287
 10
293442.6540000001
 20
5052533.287
 10
293442.8392000003
 20
5052524.7674
 10
293434.1343999999
 20
5052524.5822
  0
LWPOLYLINE
  5
158
330
1F
100
AcDbEntity
  8
BAT_PATRIMONIAL_L2000_PG
100
AcDbPolyline
 90
        8
 70
     1
 43
0.0
 10
290272.6508999998
 20
5056918.033299999
 10
290272.5514000002
 20
5056930.312100001
 10
290285.4752000002
 20
5056930.030300001
 10
290285.8888999997
 20
5056932.926100001
 10
290296.6021999996
 20
5056932.4552
 10
290297.0585000003
 20
5056925.8934
 10
290286.7163000004
 20
5056925.8934
 10
290285.8888999997
 20
5056918.033299999
  0
LWPOLYLINE
  5
159
330
1F
100
AcDbEntity
  8
BAT_PATRIMONIAL_L2000_PG
100
AcDbPolyline
 90
        4
 70
     1
 43
0.0
 10
289870.7340000002
 20
5056965.679
 10
289887.6409
 20
5056966.3934
 10
289888.1172000002
 20
5056955.4396
 10
289871.4484000001
 20
5056954.725299999
  0
LWPOLYLINE
  5
15A
330
1F
100
AcDbEntity
  8
BAT_PATRIMONIAL_L2000_PG
100
AcDbPolyline
 90
        4
 70
     1
 43
0.0
 10
295886.4945
 20
5061279.8324
 10
295896.9720999999
 20
5061278.5624
 10
295895.9402000001
 20
5061268.534700001
 10
295885.3038999997
 20
5061269.9899
  0
LWPOLYLINE
  5
15B
330
1F
100
AcDbEntity
  8
BAT_PATRIMONIAL_L2000_PG
100
AcDbPolyline
 90
       10
 70
     1
 43
0.0
 10
295946.7933
 20
5061262.171399999
 10
295947.0049999999
 20
5061270.6381
 10
295950.3915999997
 20
5061270.8498
 10
295950.8150000004
 20
5061279.316500001
 10
295962.2450000001
 20
5061279.316500001
 10
295962.0333000002
 20
5061268.733100001
 10
295958.0116999997
 20
5061268.309800001
 10
295958.0116999997
 20
5061266.1931
 10
295951.8733000001
 20
5061265.9814
 10
295951.8733000001
 20
5061261.959799999
  0
LWPOLYLINE
  5
15C
330
1F
100
AcDbEntity
  8
BAT_PATRIMONIAL_L2000_PG
100
AcDbPolyline
 90
        8
 70
     1
 43
0.0
 10
296060.6040000003
 20
5061213.190300001
 10
296065.9617999997
 20
5061226.4791
 10
296078.6618999997
 20
5061220.929400001
 10
296074.9577000001
 20
5061212.509
 10
296080.2494000001
 20
5061210.0153
 10
296077.2728000004
 20
5061202.8716
 10
296062.5883999998
 20
5061208.4278
 10
296063.5806
 20
5061211.6028
  0
LWPOLYLINE
  5
15D
330
1F
100
AcDbEntity
  8
BAT_PATRIMONIAL_L2000_PG
100
AcDbPolyline
 90
        4
 70
     1
 43
0.0
 10
294414.4787999997
 20
5060856.943600001
 10
294428.7662000004
 20
5060860.793199999
 10
294431.6238000002
 20
5060850.0776
 10
294417.8125
 20
5060846.0295
  0
LWPOLYLINE
  5
15E
330
1F
100
AcDbEntity
  8
BAT_PATRIMONIAL_L2000_PG
100
AcDbPolyline
 90
        8
 70
     1
 43
0.0
 10
294474.0367000001
 20
5060875.901000001
 10
294486.4192000004
 20
5060879.949100001
 10
294490.4672999997
 20
5060867.8047
 10
294488.8004999999
 20
5060867.090299999
 10
294489.5148
 20
5060864.471000001
 10
294479.7516999999
 20
5060861.375299999
 10
294478.3229
 20
5060865.4235
 10
294477.1322999997
 20
5060865.1853
  0
LWPOLYLINE
  5
15F
330
1F
100
AcDbEntity
  8
BAT_PATRIMONIAL_L2000_PG
100
AcDbPolyline
 90
       12
 70
     1
 43
0.0
 10
294546.2150999997
 20
5060901.909499999
 10
294557.4599000001
 20
5060901.817
 10
294557.6452000001
 20
5060896.9089
 10
294561.2170000002
 20
5060896.6708
 10
294561.2170000002
 20
5060891.1939
 10
294558.5976999998
 20
5060891.1939
 10
294558.5976999998
 20
5060887.1457
 10
294555.9782999996
 20
5060887.1457
 10
294555.9782999996
 20
5060880.002
 10
294551.4274000004
 20
5060880.121099999
 10
294551.2158000004
 20
5060885.717
 10
294545.977
 20
5060885.717
  0
LWPOLYLINE
  5
160
330
1F
100
AcDbEntity
  8
BAT_PATRIMONIAL_L2000_PG
100
AcDbPolyline
 90
        6
 70
     1
 43
0.0
 10
294613.8691999996
 20
5060916.8586
 10
294626.0136000002
 20
5060916.144200001
 10
294625.2992000002
 20
5060903.285399999
 10
294618.8433999997
 20
5060903.6162
 10
294618.8698000005
 20
5060906.619200001
 10
294613.1547999997
 20
5060906.8573
  0
LWPOLYLINE
  5
161
330
1F
100
AcDbEntity
  8
BAT_PATRIMONIAL_L2000_PG
100
AcDbPolyline
 90
       12
 70
     1
 43
0.0
 10
294663.5050999997
 20
5060928.116599999
 10
294670.9134999998
 20
5060928.116599999
 10
294670.9134999998
 20
5060926.4233
 10
294672.3951000003
 20
5060926.4233
 10
294672.3951000003
 20
5060925.153200001
 10
294680.2268000003
 20
5060925.153200001
 10
294680.4385000002
 20
5060912.664899999
 10
294672.8185000001
 20
5060912.8237
 10
294673.0301000001
 20
5060919.8616
 10
294668.5850999998
 20
5060919.8616
 10
294668.5850999998
 20
5060916.2632
 10
294662.6584999999
 20
5060916.2632
  0
LWPOLYLINE
  5
162
330
1F
100
AcDbEntity
  8
BAT_PATRIMONIAL_L2000_PG
100
AcDbPolyline
 90
        4
 70
     1
 43
0.0
 10
294693.7735000001
 20
5060929.4924
 10
294703.4044000003
 20
5060929.545399999
 10
294703.7219000002
 20
5060918.6974
 10
294693.9852
 20
5060918.4857
  0
LWPOLYLINE
  5
163
330
1F
100
AcDbEntity
  8
BAT_PATRIMONIAL_L2000_PG
100
AcDbPolyline
 90
        8
 70
     1
 43
0.0
 10
294709.1194000002
 20
5060909.1724
 10
294718.0094999997
 20
5060908.7491
 10
294718.2210999997
 20
5060902.1874
 10
294715.8927999996
 20
5060902.1874
 10
294715.8927999996
 20
5060897.7424
 10
294711.4478000002
 20
5060897.7424
 10
294711.4478000002
 20
5060901.1291
 10
294709.1194000002
 20
5060901.5524
  0
LWPOLYLINE
  5
164
330
1F
100
AcDbEntity
  8
BAT_PATRIMONIAL_L2000_PG
100
AcDbPolyline
 90
        6
 70
     1
 43
0.0
 10
294742.4568999996
 20
5060919.649900001
 10
294753.2518999996
 20
5060918.168199999
 10
294751.5586000001
 20
5060901.8698
 10
294743.0919000003
 20
5060902.504799999
 10
294743.5152000003
 20
5060906.7382
 10
294740.9752000002
 20
5060906.9498
  0
LWPOLYLINE
  5
165
330
1F
100
AcDbEntity
  8
BAT_PATRIMONIAL_L2000_PG
100
AcDbPolyline
 90
        4
 70
     1
 43
0.0
 10
295043.7121000001
 20
5061274.0997
 10
295052.9989999998
 20
5061277.1953
 10
295056.3327000001
 20
5061265.289100001
 10
295047.1253000004
 20
5061262.5109
  0
LWPOLYLINE
  5
166
330
1F
100
AcDbEntity
  8
BAT_PATRIMONIAL_L2000_PG
100
AcDbPolyline
 90
        8
 70
     1
 43
0.0
 10
295165.6323999995
 20
5061331.2499
 10
295176.3480000002
 20
5061331.2499
 10
295176.3480000002
 20
5061323.1536
 10
295178.7292999998
 20
5061323.1536
 10
295178.7292999998
 20
5061316.0099
 10
295172.7761000004
 20
5061315.7717
 10
295172.7761000004
 20
5061321.248600001
 10
295165.6323999995
 20
5061321.248600001
  0
LWPOLYLINE
  5
167
330
1F
100
AcDbEntity
  8
BAT_PATRIMONIAL_L2000_PG
100
AcDbPolyline
 90
        4
 70
     1
 43
0.0
 10
295197.2641000003
 20
5061332.9637
 10
295206.2863999996
 20
5061332.831499999
 10
295206.2863999996
 20
5061324.259
 10
295197.2377000004
 20
5061324.0209
  0
LWPOLYLINE
  5
168
330
1F
100
AcDbEntity
  8
BAT_PATRIMONIAL_L2000_PG
100
AcDbPolyline
 90
        6
 70
     1
 43
0.0
 10
295238.2607000005
 20
5061332.387599999
 10
295247.3093999997
 20
5061331.9113
 10
295247.0713
 20
5061318.576300001
 10
295242.0707
 20
5061318.8144
 10
295242.0707
 20
5061321.91
 10
295238.0225
 20
5061321.91
  0
LWPOLYLINE
  5
169
330
1F
100
AcDbEntity
  8
BAT_PATRIMONIAL_L2000_PG
100
AcDbPolyline
 90
        4
 70
     1
 43
0.0
 10
295254.6913000001
 20
5061342.2565
 10
295254.5590000004
 20
5061349.9559
 10
295264.8777999999
 20
5061349.8236
 10
295264.8777999999
 20
5061342.150699999
  0
LWPOLYLINE
  5
16A
330
1F
100
AcDbEntity
  8
BAT_PATRIMONIAL_L2000_PG
100
AcDbPolyline
 90
        4
 70
     1
 43
0.0
 10
295294.5377000002
 20
5061327.519200001
 10
295294.7757999999
 20
5061318.4704
 10
295285.2507999996
 20
5061318.2323
 10
295285.1184
 20
5061327.2017
  0
LWPOLYLINE
  5
16B
330
1F
100
AcDbEntity
  8
BAT_PATRIMONIAL_L2000_PG
100
AcDbPolyline
 90
        4
 70
     1
 43
0.0
 10
295435.0316000003
 20
5061309.9111
 10
295449.3191999998
 20
5061310.1492
 10
295449.2397999996
 20
5061298.071
 10
295434.9523
 20
5061297.9652
  0
LWPOLYLINE
  5
16C
330
1F
100
AcDbEntity
  8
BAT_PATRIMONIAL_L2000_PG
100
AcDbPolyline
 90
        6
 70
     1
 43
0.0
 10
295457.7065000003
 20
5061315.692299999
 10
295471.4649
 20
5061316.115599999
 10
295471.3590000002
 20
5061298.706
 10
295461.0932
 20
5061298.7589
 10
295461.3048
 20
5061307.2256
 10
295457.7065000003
 20
5061307.2256
  0
LWPOLYLINE
  5
16D
330
1F
100
AcDbEntity
  8
BAT_PATRIMONIAL_L2000_PG
100
AcDbPolyline
 90
       10
 70
     1
 43
0.0
 10
295498.2407999998
 20
5061304.156500001
 10
295499.2991000004
 20
5061315.1631
 10
295502.8975
 20
5061315.3748
 10
295503.1091999998
 20
5061318.338199999
 10
295508.4007999999
 20
5061318.126499999
 10
295508.1891999999
 20
5061313.469799999
 10
295511.9992000004
 20
5061313.046499999
 10
295511.9992000004
 20
5061309.024800001
 10
295514.7507999996
 20
5061308.813100001
 10
295514.1157999998
 20
5061302.674799999
  0
LWPOLYLINE
  5
16E
330
1F
100
AcDbEntity
  8
BAT_PATRIMONIAL_L2000_PG
100
AcDbPolyline
 90
       16
 70
     1
 43
0.0
 10
295601.7988
 20
5061287.7522
 10
295617.2505000001
 20
5061287.7522
 10
295617.4622
 20
5061268.067199999
 10
295618.9439000003
 20
5061268.067199999
 10
295618.9439000003
 20
5061252.4038
 10
295613.4404999996
 20
5061252.4038
 10
295613.2289000005
 20
5061244.9955
 10
295611.9589
 20
5061244.9955
 10
295611.7472000001
 20
5061242.032099999
 10
295610.2654999997
 20
5061242.032099999
 10
295610.0538999997
 20
5061244.3605
 10
295605.6087999996
 20
5061244.3605
 10
295605.6087999996
 20
5061254.9438
 10
295603.4922000002
 20
5061255.1555
 10
295603.4922000002
 20
5061260.8705
 10
295601.3755000001
 20
5061260.8705
  0
LWPOLYLINE
  5
16F
330
1F
100
AcDbEntity
  8
BAT_PATRIMONIAL_L2000_PG
100
AcDbPolyline
 90
        8
 70
     1
 43
0.0
 10
295618.3090000004
 20
5061248.9114
 10
295632.7023999998
 20
5061248.9114
 10
295632.9139999999
 20
5061235.999700001
 10
295628.0456999997
 20
5061235.788000001
 10
295628.2572999997
 20
5061231.5547
 10
295626.5640000002
 20
5061231.5547
 10
295626.3523000004
 20
5061229.649599999
 10
295618.5207000002
 20
5061229.649599999
  0
LWPOLYLINE
  5
170
330
1F
100
AcDbEntity
  8
BAT_PATRIMONIAL_L2000_PG
100
AcDbPolyline
 90
        4
 70
     1
 43
0.0
 10
295618.6262999997
 20
5061227.3212
 10
295625.8229999999
 20
5061227.5329
 10
295626.4579999996
 20
5061212.7162
 10
295619.0497000003
 20
5061212.5045
  0
LWPOLYLINE
  5
171
330
1F
100
AcDbEntity
  8
BAT_PATRIMONIAL_L2000_PG
100
AcDbPolyline
 90
        4
 70
     1
 43
0.0
 10
295636.6446000002
 20
5061306.960999999
 10
295637.9145999998
 20
5061320.9311
 10
295650.8262999998
 20
5061320.0844
 10
295649.5563000003
 20
5061305.9027
  0
LWPOLYLINE
  5
172
330
1F
100
AcDbEntity
  8
BAT_PATRIMONIAL_L2000_PG
100
AcDbPolyline
 90
        4
 70
     1
 43
0.0
 10
295692.9479999999
 20
5061337.652799999
 10
295702.8964
 20
5061338.499399999
 10
295704.1664000005
 20
5061327.916099999
 10
295694.1122000003
 20
5061326.8048
  0
LWPOLYLINE
  5
173
330
1F
100
AcDbEntity
  8
BAT_PATRIMONIAL_L2000_PG
100
AcDbPolyline
 90
        4
 70
     1
 43
0.0
 10
295751.7915000003
 20
5061330.985300001
 10
295752.0032000002
 20
5061340.721999999
 10
295762.5865000002
 20
5061340.351500001
 10
295762.3748000003
 20
5061330.509
  0
LWPOLYLINE
  5
174
330
1F
100
AcDbEntity
  8
BAT_PATRIMONIAL_L2000_PG
100
AcDbPolyline
 90
        8
 70
     1
 43
0.0
 10
282681.4107999997
 20
5052907.468499999
 10
282690.9358000001
 20
5052911.7018
 10
282695.1690999996
 20
5052903.235099999
 10
282696.7566
 20
5052904.293500001
 10
282700.1962000001
 20
5052898.737199999
 10
282695.4336999999
 20
5052896.355900001
 10
282693.5816000002
 20
5052900.0601
 10
282686.4379000003
 20
5052896.355900001
  0
LWPOLYLINE
  5
175
330
1F
100
AcDbEntity
  8
BAT_PATRIMONIAL_L2000_PG
100
AcDbPolyline
 90
        4
 70
     1
 43
0.0
 10
282743.7467999998
 20
5052938.9539
 10
282754.3300999999
 20
5052940.5415
 10
282756.1821999997
 20
5052931.0164
 10
282745.3343000002
 20
5052929.1643
  0
LWPOLYLINE
  5
176
330
1F
100
AcDbEntity
  8
BAT_PATRIMONIAL_L2000_PG
100
AcDbPolyline
 90
        4
 70
     1
 43
0.0
 10
282752.6897
 20
5052911.437200001
 10
282760.0980000002
 20
5052912.7601
 10
282761.4209000003
 20
5052906.145500001
 10
282754.0126
 20
5052904.8226
  0
LWPOLYLINE
  5
177
330
1F
100
AcDbEntity
  8
BAT_PATRIMONIAL_L2000_PG
100
AcDbPolyline
 90
        6
 70
     1
 43
0.0
 10
282776.1317999996
 20
5052916.3585
 10
282786.9797999999
 20
5052918.2106
 10
282788.5673000002
 20
5052911.3314
 10
282785.3923000004
 20
5052911.3314
 10
282785.3923000004
 20
5052909.4793
 10
282777.7193
 20
5052907.6273
  0
LWPOLYLINE
  5
178
330
1F
100
AcDbEntity
  8
BAT_PATRIMONIAL_L2000_PG
100
AcDbPolyline
 90
        6
 70
     1
 43
0.0
 10
282055.5992999999
 20
5052434.212400001
 10
282050.4142000005
 20
5052440.890799999
 10
282052.6420999998
 20
5052442.6314
 10
282049.0647
 20
5052447.8663
 10
282054.7240000004
 20
5052451.7752
 10
282063.4573999997
 20
5052440.4037
  0
LWPOLYLINE
  5
179
330
1F
100
AcDbEntity
  8
BAT_PATRIMONIAL_L2000_PG
100
AcDbPolyline
 90
        8
 70
     1
 43
0.0
 10
282006.5190000003
 20
5052467.6558
 10
282014.8534000004
 20
5052469.0846
 10
282015.0915000001
 20
5052466.4652
 10
282020.5684000002
 20
5052467.6558
 10
282021.7589999996
 20
5052460.988299999
 10
282016.0439999998
 20
5052459.797700001
 10
282016.2821000004
 20
5052457.8927
 10
282008.9002
 20
5052455.511399999
  0
LWPOLYLINE
  5
17A
330
1F
100
AcDbEntity
  8
BAT_PATRIMONIAL_L2000_PG
100
AcDbPolyline
 90
        6
 70
     1
 43
0.0
 10
282001.2801999999
 20
5052485.012599999
 10
282021.2828000002
 20
5052489.298800001
 10
282021.9971000003
 20
5052485.7269
 10
282008.4239999996
 20
5052482.6313
 10
282008.6621000003
 20
5052481.2026
 10
282002.2326999996
 20
5052479.773800001
  0
LWPOLYLINE
  5
17B
330
1F
100
AcDbEntity
  8
BAT_PATRIMONIAL_L2000_PG
100
AcDbPolyline
 90
        8
 70
     1
 43
0.0
 10
282013.5568000004
 20
5052518.376599999
 10
282025.4631000003
 20
5052520.7579
 10
282027.8443999998
 20
5052510.7566
 10
282015.4617999997
 20
5052508.1372
 10
282014.9856000002
 20
5052510.280300001
 10
282012.6042999998
 20
5052510.042199999
 10
282011.8898999998
 20
5052513.376
 10
282014.0330999997
 20
5052513.6141
  0
LWPOLYLINE
  5
17C
330
1F
100
AcDbEntity
  8
BAT_PATRIMONIAL_L2000_PG
100
AcDbPolyline
 90
        4
 70
     1
 43
0.0
 10
282288.0097000003
 20
5052639.820499999
 10
282298.0109999999
 20
5052641.9637
 10
282299.7572999997
 20
5052633.669
 10
282289.8088999996
 20
5052631.4465
  0
LWPOLYLINE
  5
17D
330
1F
100
AcDbEntity
  8
BAT_PATRIMONIAL_L2000_PG
100
AcDbPolyline
 90
       10
 70
     1
 43
0.0
 10
282304.1494000005
 20
5052689.112600001
 10
282316.0557000004
 20
5052692.6844
 10
282318.4369000001
 20
5052692.6844
 10
282323.4375
 20
5052694.351299999
 10
282323.6756999996
 20
5052693.160700001
 10
282317.9606999997
 20
5052691.2557
 10
282318.4369000001
 20
5052688.636299999
 10
282314.6268999996
 20
5052687.2075
 10
282315.5794000002
 20
5052682.9213
 10
282306.5306000002
 20
5052680.778200001
  0
LWPOLYLINE
  5
17E
330
1F
100
AcDbEntity
  8
BAT_PATRIMONIAL_L2000_PG
100
AcDbPolyline
 90
        6
 70
     1
 43
0.0
 10
282272.8755000001
 20
5052704.1938
 10
282281.4479999999
 20
5052705.8607
 10
282283.5911999997
 20
5052694.9069
 10
282271.4468
 20
5052692.763800001
 10
282270.0180000002
 20
5052699.907600001
 10
282273.1135999998
 20
5052700.3838
  0
LWPOLYLINE
  5
17F
330
1F
100
AcDbEntity
  8
BAT_PATRIMONIAL_L2000_PG
100
AcDbPolyline
 90
        4
 70
     1
 43
0.0
 10
282251.9999000002
 20
5052729.4352
 10
282266.5332000004
 20
5052733.259400001
 10
282268.6752000004
 20
5052724.469699999
 10
282253.6667999998
 20
5052721.1008
  0
LWPOLYLINE
  5
180
330
1F
100
AcDbEntity
  8
BAT_PATRIMONIAL_L2000_PG
100
AcDbPolyline
 90
        6
 70
     1
 43
0.0
 10
282278.5111999996
 20
5052797.142100001
 10
282288.9886999996
 20
5052800.4759
 10
282291.8461999996
 20
5052789.998400001
 10
282293.9894000003
 20
5052790.236500001
 10
282294.9419
 20
5052786.9027
 10
282282.8767999997
 20
5052782.881100001
  0
LWPOLYLINE
  5
181
330
1F
100
AcDbEntity
  8
BAT_PATRIMONIAL_L2000_PG
100
AcDbPolyline
 90
        6
 70
     1
 43
0.0
 10
282433.9806000004
 20
5052756.872500001
 10
282448.7444000002
 20
5052765.9212
 10
282447.0774999997
 20
5052769.016899999
 10
282459.9363000002
 20
5052777.1131
 10
282469.6994000003
 20
5052761.8731
 10
282441.8388
 20
5052744.013699999
  0
LWPOLYLINE
  5
182
330
1F
100
AcDbEntity
  8
BAT_PATRIMONIAL_L2000_PG
100
AcDbPolyline
 90
       14
 70
     1
 43
0.0
 10
282461.2593
 20
5052824.209000001
 10
282465.7835999997
 20
5052825.637800001
 10
282464.5930000003
 20
5052829.2097
 10
282465.5455
 20
5052829.447799999
 10
282464.5930000003
 20
5052832.7816
 10
282473.4036999997
 20
5052836.591600001
 10
282476.4993000003
 20
5052828.7334
 10
282469.5936000003
 20
5052825.399700001
 10
282470.5460999999
 20
5052822.304
 10
282472.6892999997
 20
5052823.0184
 10
282473.4036999997
 20
5052819.922800001
 10
282466.0218000002
 20
5052817.5415
 10
282465.0692999996
 20
5052820.399
 10
282463.1643000003
 20
5052820.1609
  0
LWPOLYLINE
  5
183
330
1F
100
AcDbEntity
  8
BAT_PATRIMONIAL_L2000_PG
100
AcDbPolyline
 90
       10
 70
     1
 43
0.0
 10
282506.0796999997
 20
5052794.4169
 10
282509.8897000002
 20
5052797.512599999
 10
282508.9371999996
 20
5052799.179400001
 10
282510.6041000001
 20
5052800.608200001
 10
282508.4609000003
 20
5052803.7038
 10
282514.176
 20
5052809.4188
 10
282524.1771999998
 20
5052799.4176
 10
282514.6522000004
 20
5052789.178200001
 10
282511.5565999998
 20
5052792.9882
 10
282509.6516000004
 20
5052790.845000001
  0
LWPOLYLINE
  5
184
330
1F
100
AcDbEntity
  8
BAT_PATRIMONIAL_L2000_PG
100
AcDbPolyline
 90
        6
 70
     1
 43
0.0
 10
282491.2364999996
 20
5052829.077400001
 10
282498.6184
 20
5052831.935000001
 10
282500.0471999999
 20
5052828.1249
 10
282501.9522000002
 20
5052828.839299999
 10
282503.6190999998
 20
5052825.029300001
 10
282494.8084000004
 20
5052820.9812
  0
LWPOLYLINE
  5
185
330
1F
100
AcDbEntity
  8
BAT_PATRIMONIAL_L2000_PG
100
AcDbPolyline
 90
        6
 70
     1
 43
0.0
 10
282525.8442000002
 20
5052814.9354
 10
282531.4797
 20
5052820.081499999
 10
282540.0522999996
 20
5052811.747099999
 10
282532.0882999999
 20
5052804.669600001
 10
282529.0192
 20
5052807.738700001
 10
282531.0034999996
 20
5052809.365900001
  0
LWPOLYLINE
  5
186
330
1F
100
AcDbEntity
  8
BAT_PATRIMONIAL_L2000_PG
100
AcDbPolyline
 90
        9
 70
     1
 43
0.0
 10
282548.3866999997
 20
5052843.073899999
 10
282559.7109000003
 20
5052832.1863
 10
282551.0324999997
 20
5052823.719599999
 10
282546.9578999998
 20
5052827.833900001
 10
282549.1009999998
 20
5052829.262599999
 10
282546.2434999999
 20
5052832.120100001
 10
282548.6248000003
 20
5052834.501399999
 10
282544.5766000003
 20
5052838.787599999
 10
282544.1003999999
 20
5052841.645099999
  0
LWPOLYLINE
  5
187
330
1F
100
AcDbEntity
  8
BAT_PATRIMONIAL_L2000_PG
100
AcDbPolyline
 90
       10
 70
     1
 43
0.0
 10
282570.6381999999
 20
5052845.0847
 10
282563.4945
 20
5052851.9903
 10
282565.3995000003
 20
5052853.895300001
 10
282563.2562999995
 20
5052856.0385
 10
282565.8756999997
 20
5052859.134099999
 10
282567.7807
 20
5052857.2291
 10
282569.6857000003
 20
5052858.896
 10
282576.2209999999
 20
5052852.718
 10
282572.5166999996
 20
5052849.225500001
 10
282573.6809
 20
5052847.955499999
  0
LWPOLYLINE
  5
188
330
1F
100
AcDbEntity
  8
BAT_PATRIMONIAL_L2000_PG
100
AcDbPolyline
 90
        4
 70
     1
 43
0.0
 10
282707.8778999997
 20
5052957.7974
 10
282716.6885000002
 20
5052965.179300001
 10
282722.0595000004
 20
5052957.9165
 10
282713.1694999998
 20
5052950.1907
  0
LWPOLYLINE
  5
189
330
1F
100
AcDbEntity
  8
BAT_PATRIMONIAL_L2000_PG
100
AcDbPolyline
 90
        8
 70
     1
 43
0.0
 10
282680.4669000003
 20
5052968.671800001
 10
282684.7532000002
 20
5052972.0056
 10
282688.0869000005
 20
5052967.9574
 10
282689.0394000001
 20
5052968.9099
 10
282693.3256999999
 20
5052964.385600001
 10
282685.2293999996
 20
5052957.003699999
 10
282681.1813000003
 20
5052961.7662
 10
282683.8006999996
 20
5052964.385600001
  0
LWPOLYLINE
  5
18A
330
1F
100
AcDbEntity
  8
BAT_PATRIMONIAL_L2000_PG
100
AcDbPolyline
 90
        6
 70
     1
 43
0.0
 10
282703.0361000001
 20
5052976.9267
 10
282697.3211000003
 20
5052971.2117
 10
282689.9391999999
 20
5052979.7842
 10
282692.5319999997
 20
5052981.3057
 10
282691.1298000002
 20
5052982.879899999
 10
282694.7017000001
 20
5052985.975500001
  0
LWPOLYLINE
  5
18B
330
1F
100
AcDbEntity
  8
BAT_PATRIMONIAL_L2000_PG
100
AcDbPolyline
 90
        4
 70
     1
 43
0.0
 10
282780.2414999995
 20
5053065.086200001
 10
282771.6689999998
 20
5053069.8487
 10
282777.6221000003
 20
5053080.5644
 10
282785.7183999997
 20
5053076.039999999
  0
LWPOLYLINE
  5
18C
330
1F
100
AcDbEntity
  8
BAT_PATRIMONIAL_L2000_PG
100
AcDbPolyline
 90
        8
 70
     1
 43
0.0
 10
282788.9463
 20
5053053.656199999
 10
282795.1376
 20
5053063.419299999
 10
282803.2339000003
 20
5053058.6568
 10
282802.2019999996
 20
5053056.685699999
 10
282811.5153000001
 20
5053050.441500001
 10
282809.4250999996
 20
5053046.988700001
 10
282799.9001000002
 20
5053052.465600001
 10
282797.2807
 20
5053048.417400001
  0
LWPOLYLINE
  5
18D
330
1F
100
AcDbEntity
  8
BAT_PATRIMONIAL_L2000_PG
100
AcDbPolyline
 90
        4
 70
     1
 43
0.0
 10
282804.6626000004
 20
5053073.9498
 10
282807.5201000003
 20
5053079.664799999
 10
282818.0769999996
 20
5053074.6774
 10
282815.6163999997
 20
5053068.710999999
  0
LWPOLYLINE
  5
18E
330
1F
100
AcDbEntity
  8
BAT_PATRIMONIAL_L2000_PG
100
AcDbPolyline
 90
        4
 70
     1
 43
0.0
 10
282807.0702999998
 20
5053087.073100001
 10
282810.8803000003
 20
5053096.1219
 10
282817.3097000001
 20
5053093.0263
 10
282813.2615999999
 20
5053083.977499999
  0
LWPOLYLINE
  5
18F
330
1F
100
AcDbEntity
  8
BAT_PATRIMONIAL_L2000_PG
100
AcDbPolyline
 90
        8
 70
     1
 43
0.0
 10
282801.8051000005
 20
5053108.821900001
 10
282794.6612999998
 20
5053112.870100001
 10
282796.0900999997
 20
5053115.727600001
 10
282794.4232000001
 20
5053116.4419
 10
282796.8044999996
 20
5053121.6807
 10
282798.7094999999
 20
5053120.9663
 10
282800.1381999999
 20
5053124.062000001
 10
282807.5994999995
 20
5053120.5033
  0
LWPOLYLINE
  5
190
330
1F
100
AcDbEntity
  8
BAT_PATRIMONIAL_L2000_PG
100
AcDbPolyline
 90
        4
 70
     1
 43
0.0
 10
282804.5568000004
 20
5053138.032
 10
282813.3145000003
 20
5053133.7325
 10
282809.8219999997
 20
5053126.43
 10
282801.2231000001
 20
5053130.6501
  0
LWPOLYLINE
  5
191
330
1F
100
AcDbEntity
  8
BAT_PATRIMONIAL_L2000_PG
100
AcDbPolyline
 90
        6
 70
     1
 43
0.0
 10
282810.9068
 20
5053146.1812
 10
282812.2561999997
 20
5053149.3959
 10
282810.1924000001
 20
5053150.467499999
 10
282811.3831000002
 20
5053153.0868
 10
282821.6754000001
 20
5053148.1259
 10
282818.7120000003
 20
5053142.0934
  0
LWPOLYLINE
  5
192
330
1F
100
AcDbEntity
  8
BAT_PATRIMONIAL_L2000_PG
100
AcDbPolyline
 90
        6
 70
     1
 43
0.0
 10
282832.1793999998
 20
5053160.7597
 10
282825.0356000001
 20
5053166.2366
 10
282827.6550000003
 20
5053169.5703
 10
282824.7975000003
 20
5053171.9516
 10
282827.4168999996
 20
5053175.0472
 10
282836.7037000004
 20
5053166.950999999
  0
LWPOLYLINE
  5
193
330
1F
100
AcDbEntity
  8
BAT_PATRIMONIAL_L2000_PG
100
AcDbPolyline
 90
        6
 70
     1
 43
0.0
 10
282839.0055999998
 20
5053183.805
 10
282841.625
 20
5053187.138800001
 10
282839.9581000004
 20
5053189.2819
 10
282842.8156000003
 20
5053191.9013
 10
282850.1446000002
 20
5053185.3793
 10
282844.9588000001
 20
5053178.804400001
  0
LWPOLYLINE
  5
194
330
1F
100
AcDbEntity
  8
BAT_PATRIMONIAL_L2000_PG
100
AcDbPolyline
 90
        6
 70
     1
 43
0.0
 10
282833.5816000002
 20
5053134.592399999
 10
282838.1059999997
 20
5053138.4024
 10
282847.6310000001
 20
5053127.924900001
 10
282841.4397
 20
5053122.209899999
 10
282836.9154000003
 20
5053127.4487
 10
282838.3441000003
 20
5053128.4012
  0
LWPOLYLINE
  5
195
330
1F
100
AcDbEntity
  8
BAT_PATRIMONIAL_L2000_PG
100
AcDbPolyline
 90
        4
 70
     1
 43
0.0
 10
282836.5449999999
 20
5053145.7578
 10
282844.4030999998
 20
5053155.759099999
 10
282849.1655999999
 20
5053151.949100001
 10
282841.5455999998
 20
5053142.185900001
  0
LWPOLYLINE
  5
196
330
1F
100
AcDbEntity
  8
BAT_PATRIMONIAL_L2000_PG
100
AcDbPolyline
 90
        6
 70
     1
 43
0.0
 10
282853.0021000002
 20
5053206.7973
 10
282858.4790000003
 20
5053212.750399999
 10
282863.0033999998
 20
5053208.702299999
 10
282861.2571
 20
5053206.7576
 10
282863.0033999998
 20
5053204.8923
 10
282859.1933000004
 20
5053200.606000001
  0
LWPOLYLINE
  5
197
330
1F
100
AcDbEntity
  8
BAT_PATRIMONIAL_L2000_PG
100
AcDbPolyline
 90
        8
 70
     1
 43
0.0
 10
282915.3909999998
 20
5053215.3698
 10
282923.7253
 20
5053217.036699999
 10
282926.3447000002
 20
5053205.1304
 10
282928.9641000004
 20
5053205.3685
 10
282929.6785000004
 20
5053200.8442
 10
282924.9160000002
 20
5053199.8917
 10
282924.2016000003
 20
5053203.225400001
 10
282918.0103000002
 20
5053201.796700001
  0
LWPOLYLINE
  5
198
330
1F
100
AcDbEntity
  8
BAT_PATRIMONIAL_L2000_PG
100
AcDbPolyline
 90
        4
 70
     1
 43
0.0
 10
282721.2128999997
 20
5053150.1632
 10
282728.9386999998
 20
5053151.962300001
 10
282731.0289000003
 20
5053143.7206
 10
282723.1706999997
 20
5053141.8156
  0
LWPOLYLINE
  5
199
330
1F
100
AcDbEntity
  8
BAT_PATRIMONIAL_L2000_PG
100
AcDbPolyline
 90
        6
 70
     1
 43
0.0
 10
282701.8187999995
 20
5053275.6949
 10
282710.8676000005
 20
5053278.1688
 10
282713.4869999997
 20
5053268.312999999
 10
282708.2482000003
 20
5053266.884299999
 10
282707.7719999999
 20
5053268.7893
 10
282703.7237999998
 20
5053267.8368
  0
LWPOLYLINE
  5
19A
330
1F
100
AcDbEntity
  8
BAT_PATRIMONIAL_L2000_PG
100
AcDbPolyline
 90
       12
 70
     1
 43
0.0
 10
282681.7105
 20
5053248.4164
 10
282690.0449000001
 20
5053249.8452
 10
282691.4736000001
 20
5053241.7489
 10
282690.0449000001
 20
5053241.7489
 10
282689.8068000004
 20
5053239.843900001
 10
282687.4254999999
 20
5053239.843900001
 10
282687.4254999999
 20
5053236.0339
 10
282683.6155000003
 20
5053236.0339
 10
282682.4249
 20
5053241.7489
 10
282678.6149000004
 20
5053241.034499999
 10
282678.1386000002
 20
5053245.082599999
 10
282681.7105
 20
5053245.797
  0
LWPOLYLINE
  5
19B
330
1F
100
AcDbEntity
  8
BAT_PATRIMONIAL_L2000_PG
100
AcDbPolyline
 90
        6
 70
     1
 43
0.0
 10
282636.9429000001
 20
5053223.2015
 10
282642.6579
 20
5053225.582800001
 10
282645.5153999999
 20
5053219.6296
 10
282643.8485000003
 20
5053218.9153
 10
282644.801
 20
5053216.534
 10
282640.7528999997
 20
5053215.1053
  0
LWPOLYLINE
  5
19C
330
1F
100
AcDbEntity
  8
BAT_PATRIMONIAL_L2000_PG
100
AcDbPolyline
 90
        6
 70
     1
 43
0.0
 10
282622.1527000004
 20
5053216.375299999
 10
282630.0108000003
 20
5053219.9471
 10
282632.8683000002
 20
5053213.755899999
 10
282630.4870999996
 20
5053212.803400001
 10
282631.7041999996
 20
5053210.2237
 10
282626.2007999998
 20
5053207.5646
  0
LWPOLYLINE
  5
19D
330
1F
100
AcDbEntity
  8
BAT_PATRIMONIAL_L2000_PG
100
AcDbPolyline
 90
        4
 70
     1
 43
0.0
 10
282630.5928999996
 20
5053248.204700001
 10
282636.7841999996
 20
5053251.062200001
 10
282639.4299999997
 20
5053244.937100001
 10
282633.1858000001
 20
5053241.7621
  0
LWPOLYLINE
  5
19E
330
1F
100
AcDbEntity
  8
BAT_PATRIMONIAL_L2000_PG
100
AcDbPolyline
 90
       10
 70
     1
 43
0.0
 10
282684.2241000002
 20
5053297.7348
 10
282684.4622
 20
5053288.9242
 10
282676.4716999996
 20
5053288.1172
 10
282676.3658999996
 20
5053286.3048
 10
282670.1747000003
 20
5053286.3048
 10
282670.4128
 20
5053290.3529
 10
282673.5083999997
 20
5053290.3529
 10
282673.2703
 20
5053292.734200001
 10
282675.4134
 20
5053292.734200001
 10
282675.4134
 20
5053297.2585
  0
LWPOLYLINE
  5
19F
330
1F
100
AcDbEntity
  8
BAT_PATRIMONIAL_L2000_PG
100
AcDbPolyline
 90
        4
 70
     1
 43
0.0
 10
282583.7351000002
 20
5053283.4737
 10
282590.1645
 20
5053286.3312
 10
282595.4033000004
 20
5053275.615599999
 10
282588.7357999999
 20
5053272.2818
  0
LWPOLYLINE
  5
1A0
330
1F
100
AcDbEntity
  8
BAT_PATRIMONIAL_L2000_PG
100
AcDbPolyline
 90
        8
 70
     1
 43
0.0
 10
282552.5406999998
 20
5053265.217399999
 10
282561.5894999998
 20
5053269.2655
 10
282568.0187999997
 20
5053255.454299999
 10
282562.3037999999
 20
5053252.596799999
 10
282562.5420000004
 20
5053251.406099999
 10
282558.7319
 20
5053249.7392
 10
282557.0651000002
 20
5053253.073000001
 10
282557.7794000003
 20
5053253.311100001
  0
LWPOLYLINE
  5
1A1
330
1F
100
AcDbEntity
  8
BAT_PATRIMONIAL_L2000_PG
100
AcDbPolyline
 90
        4
 70
     1
 43
0.0
 10
282636.4402000001
 20
5053473.815400001
 10
282644.2983999997
 20
5053483.102299999
 10
282653.5853000004
 20
5053475.244200001
 10
282645.1979
 20
5053466.234999999
  0
LWPOLYLINE
  5
1A2
330
1F
100
AcDbEntity
  8
BAT_PATRIMONIAL_L2000_PG
100
AcDbPolyline
 90
        4
 70
     1
 43
0.0
 10
282614.7971999999
 20
5053527.737600001
 10
282620.6445000004
 20
5053532.804300001
 10
282625.0366000002
 20
5053527.9757
 10
282619.0834999997
 20
5053522.7369
  0
LWPOLYLINE
  5
1A3
330
1F
100
AcDbEntity
  8
BAT_PATRIMONIAL_L2000_PG
100
AcDbPolyline
 90
       10
 70
     1
 43
0.0
 10
282706.9781999998
 20
5053548.5867
 10
282716.9795000004
 20
5053556.206700001
 10
282718.1700999998
 20
5053554.778000001
 10
282719.8370000003
 20
5053556.4449
 10
282722.6945000002
 20
5053552.6349
 10
282719.9164000005
 20
5053550.690199999
 10
282721.0275999997
 20
5053549.5392
 10
282713.1694999998
 20
5053543.586100001
 10
282711.5026000002
 20
5053545.9673
 10
282709.6506000003
 20
5053544.763499999
  0
LWPOLYLINE
  5
1A4
330
1F
100
AcDbEntity
  8
BAT_PATRIMONIAL_L2000_PG
100
AcDbPolyline
 90
        8
 70
     1
 43
0.0
 10
282966.2023
 20
5053269.2247
 10
282974.7747999998
 20
5053275.1778
 10
282980.966
 20
5053266.8434
 10
282978.6904999996
 20
5053265.322000001
 10
282980.8071999997
 20
5053262.5703
 10
282978.0554999998
 20
5053260.771199999
 10
282979.5373
 20
5053258.747199999
 10
282976.6798
 20
5053256.8422
  0
LWPOLYLINE
  5
1A5
330
1F
100
AcDbEntity
  8
BAT_PATRIMONIAL_L2000_PG
100
AcDbPolyline
 90
        4
 70
     1
 43
0.0
 10
282974.4042999996
 20
5053302.0066
 10
282981.0718
 20
5053306.769099999
 10
282989.4062000001
 20
5053295.3391
 10
282982.7386999996
 20
5053290.5766
  0
LWPOLYLINE
  5
1A6
330
1F
100
AcDbEntity
  8
BAT_PATRIMONIAL_L2000_PG
100
AcDbPolyline
 90
        6
 70
     1
 43
0.0
 10
282913.4970000004
 20
5053411.6766
 10
282919.6882999996
 20
5053413.819700001
 10
282922.3076999998
 20
5053407.3903
 10
282919.6882999996
 20
5053406.1997
 10
282920.6408000002
 20
5053403.818399999
 10
282917.4128999999
 20
5053402.5352
  0
LWPOLYLINE
  5
1A7
330
1F
100
AcDbEntity
  8
BAT_PATRIMONIAL_L2000_PG
100
AcDbPolyline
 90
        6
 70
     1
 43
0.0
 10
283013.0334999999
 20
5053390.430400001
 10
283018.0340999998
 20
5053394.478599999
 10
283022.7966
 20
5053389.001700001
 10
283021.1298000002
 20
5053387.572899999
 10
283025.6540999999
 20
5053382.3342
 10
283022.3203999996
 20
5053379.4767
  0
LWPOLYLINE
  5
1A8
330
1F
100
AcDbEntity
  8
BAT_PATRIMONIAL_L2000_PG
100
AcDbPolyline
 90
        4
 70
     1
 43
0.0
 10
283069.4956
 20
5053531.612400001
 10
283075.4488000004
 20
5053529.7074
 10
283072.3531999998
 20
5053520.658600001
 10
283066.6381000001
 20
5053522.8018
  0
LWPOLYLINE
  5
1A9
330
1F
100
AcDbEntity
  8
BAT_PATRIMONIAL_L2000_PG
100
AcDbPolyline
 90
       10
 70
     1
 43
0.0
 10
283086.5614
 20
5053536.957
 10
283090.6095000003
 20
5053544.1007
 10
283097.2216999996
 20
5053540.233100001
 10
283097.9913999997
 20
5053541.4814
 10
283102.5631999997
 20
5053539.094799999
 10
283101.0871000001
 20
5053535.7664
 10
283100.1346000005
 20
5053536.2426
 10
283098.9439000003
 20
5053533.147
 10
283096.8713999996
 20
5053534.2786
 10
283095.6102
 20
5053531.9564
  0
LWPOLYLINE
  5
1AA
330
1F
100
AcDbEntity
  8
BAT_PATRIMONIAL_L2000_PG
100
AcDbPolyline
 90
        6
 70
     1
 43
0.0
 10
283070.2366000004
 20
5053619.4278
 10
283073.9407000002
 20
5053623.2775
 10
283086.1909999996
 20
5053610.6171
 10
283079.5234000003
 20
5053603.9496
 10
283070.9508999996
 20
5053612.5221
 10
283073.8084000004
 20
5053615.3796
  0
LWPOLYLINE
  5
1AB
330
1F
100
AcDbEntity
  8
BAT_PATRIMONIAL_L2000_PG
100
AcDbPolyline
 90
       10
 70
     1
 43
0.0
 10
283272.6695999997
 20
5053803.3136
 10
283280.7659
 20
5053811.171700001
 10
283285.2903000005
 20
5053806.647399999
 10
283283.8614999996
 20
5053805.456700001
 10
283288.3859000001
 20
5053800.9323
 10
283287.1952999998
 20
5053800.218
 10
283288.1478000004
 20
5053798.312999999
 10
283285.2903000005
 20
5053795.693600001
 10
283283.8614999996
 20
5053796.408
 10
283281.7183999997
 20
5053794.503
  0
LWPOLYLINE
  5
1AC
330
1F
100
AcDbEntity
  8
BAT_PATRIMONIAL_L2000_PG
100
AcDbPolyline
 90
       12
 70
     1
 43
0.0
 10
287034.5362
 20
5051638.4858
 10
287042.6853999998
 20
5051644.227299999
 10
287042.5000999998
 20
5051644.7829
 10
287048.6119999997
 20
5051649.2279
 10
287053.9830999998
 20
5051642.189999999
 10
287049.1677000001
 20
5051638.671
 10
287050.6492999997
 20
5051636.2633
 10
287048.0564000001
 20
5051634.226
 10
287049.1677000001
 20
5051632.1887
 10
287045.2783000004
 20
5051629.040200001
 10
287043.7966
 20
5051630.7071
 10
287041.0185000002
 20
5051628.4846
  0
LWPOLYLINE
  5
1AD
330
1F
100
AcDbEntity
  8
BAT_PATRIMONIAL_L2000_PG
100
AcDbPolyline
 90
       10
 70
     1
 43
0.0
 10
287072.1335000005
 20
5051547.7335
 10
287094.9142000005
 20
5051517.729699999
 10
287082.2936000004
 20
5051507.9005
 10
287080.2827000003
 20
5051510.5066
 10
287078.9863
 20
5051509.395300001
 10
287073.6151999999
 20
5051517.1741
 10
287074.4619000005
 20
5051517.743000001
 10
287058.2429
 20
5051539.3991
 10
287061.0209999997
 20
5051541.6216
 10
287061.9471000005
 20
5051540.695599999
  0
LWPOLYLINE
  5
1AE
330
1F
100
AcDbEntity
  8
BAT_PATRIMONIAL_L2000_PG
100
AcDbPolyline
 90
       10
 70
     1
 43
0.0
 10
287033.9804999996
 20
5051526.9902
 10
287042.7117999997
 20
5051533.7238
 10
287048.7971999999
 20
5051525.878900001
 10
287050.8609999996
 20
5051527.479699999
 10
287053.8243000004
 20
5051523.034700001
 10
287050.6492999997
 20
5051520.6931
 10
287052.0252
 20
5051518.695499999
 10
287047.8711999999
 20
5051515.507200001
 10
287046.7598999999
 20
5051516.9889
 10
287043.0558000002
 20
5051514.7664
  0
LWPOLYLINE
  5
1AF
330
1F
100
AcDbEntity
  8
BAT_PATRIMONIAL_L2000_PG
100
AcDbPolyline
 90
        6
 70
     1
 43
0.0
 10
286913.2484999998
 20
5056207.1468
 10
286922.7735000001
 20
5056215.243100001
 10
286929.2028999999
 20
5056208.112500001
 10
286920.7362000002
 20
5056200.0692
 10
286916.5822000001
 20
5056204.5274
 10
286915.6297000004
 20
5056204.5274
  0
LWPOLYLINE
  5
1B0
330
1F
100
AcDbEntity
  8
BAT_PATRIMONIAL_L2000_PG
100
AcDbPolyline
 90
        4
 70
     1
 43
0.0
 10
287127.5878999997
 20
5056348.1435
 10
287136.1604000004
 20
5056351.001
 10
287139.0179000003
 20
5056342.6666
 10
287130.6835000003
 20
5056340.0472
  0
LWPOLYLINE
  5
1B1
330
1F
100
AcDbEntity
  8
BAT_PATRIMONIAL_L2000_PG
100
AcDbPolyline
 90
        8
 70
     1
 43
0.0
 10
287245.5658
 20
5056390.8738
 10
287251.7571
 20
5056394.207599999
 10
287248.1852000002
 20
5056401.351399999
 10
287253.9002
 20
5056404.6851
 10
287262.2346000001
 20
5056390.8738
 10
287259.8534000004
 20
5056389.6832
 10
287260.5676999995
 20
5056388.0163
 10
287250.3283000002
 20
5056382.063200001
  0
LWPOLYLINE
  5
1B2
330
1F
100
AcDbEntity
  8
BAT_PATRIMONIAL_L2000_PG
100
AcDbPolyline
 90
        6
 70
     1
 43
0.0
 10
296185.5169000002
 20
5061152.598200001
 10
296195.7562999995
 20
5061150.6932
 10
296193.4808
 20
5061137.715299999
 10
296185.2786999997
 20
5061139.2631
 10
296186.2312000003
 20
5061143.3113
 10
296183.8499999996
 20
5061144.025699999
  0
LWPOLYLINE
  5
1B3
330
1F
100
AcDbEntity
  8
BAT_PATRIMONIAL_L2000_PG
100
AcDbPolyline
 90
       12
 70
     1
 43
0.0
 10
290148.2427000003
 20
5045881.434
 10
290162.6975999996
 20
5045892.939099999
 10
290162.0097000003
 20
5045893.997400001
 10
290165.2905000001
 20
5045896.378699999
 10
290170.7938999999
 20
5045887.859099999
 10
290168.148
 20
5045886.006999999
 10
290168.6771999998
 20
5045885.424900001
 10
290168.148
 20
5045885.1603
 10
290168.5713999998
 20
5045884.578199999
 10
290157.4058999997
 20
5045875.7411
 10
290156.7180000003
 20
5045876.693600001
 10
290153.4901000001
 20
5045874.5241
  0
LWPOLYLINE
  5
1B4
330
1F
100
AcDbEntity
  8
BAT_PATRIMONIAL_L2000_PG
100
AcDbPolyline
 90
        4
 70
     1
 43
0.0
 10
288997.5
 20
5045598.5
 10
288992.7999999998
 20
5045595.300000001
 10
288990.9000000004
 20
5045598.199999999
 10
288995.5999999996
 20
5045601.4
  0
LWPOLYLINE
  5
1B5
330
1F
100
AcDbEntity
  8
BAT_PATRIMONIAL_L2000_PG
100
AcDbPolyline
 90
        4
 70
     1
 43
0.0
 10
286329.5999999996
 20
5055441.800000001
 10
286324.5
 20
5055437.699999999
 10
286320.0
 20
5055443.199999999
 10
286325.0
 20
5055447.4
  0
LWPOLYLINE
  5
1B6
330
1F
100
AcDbEntity
  8
BAT_PATRIMONIAL_L2000_PG
100
AcDbPolyline
 90
        4
 70
     1
 43
0.0
 10
286292.5999999996
 20
5055428.1
 10
286284.7000000002
 20
5055422.5
 10
286280.7000000002
 20
5055428.199999999
 10
286288.5999999996
 20
5055433.699999999
  0
LWPOLYLINE
  5
1B7
330
1F
100
AcDbEntity
  8
BAT_PATRIMONIAL_L2000_PG
100
AcDbPolyline
 90
        4
 70
     1
 43
0.0
 10
286317.7000000002
 20
5055440.199999999
 10
286308.5999999996
 20
5055432.300000001
 10
286304.0
 20
5055437.6
 10
286313.0
 20
5055445.5
  0
LWPOLYLINE
  5
1B8
330
1F
100
AcDbEntity
  8
BAT_PATRIMONIAL_L2000_PG
100
AcDbPolyline
 90
        4
 70
     1
 43
0.0
 10
286651.9000000004
 20
5044071.1
 10
286646.2999999998
 20
5044065.9
 10
286639.0
 20
5044074.699999999
 10
286644.5
 20
5044079.699999999
  0
LWPOLYLINE
  5
1B9
330
1F
100
AcDbEntity
  8
BAT_PATRIMONIAL_L2000_PG
100
AcDbPolyline
 90
        4
 70
     1
 43
0.0
 10
285682.2999999998
 20
5058329.0
 10
285656.5
 20
5058314.699999999
 10
285651.5999999996
 20
5058323.6
 10
285677.2999999998
 20
5058337.800000001
  0
LWPOLYLINE
  5
1BA
330
1F
100
AcDbEntity
  8
BAT_PATRIMONIAL_L2000_PG
100
AcDbPolyline
 90
        4
 70
     1
 43
0.0
 10
298640.7999999998
 20
5061447.199999999
 10
298635.5
 20
5061446.5
 10
298634.5999999996
 20
5061453.199999999
 10
298640.0
 20
5061453.800000001
  0
LWPOLYLINE
  5
1BB
330
1F
100
AcDbEntity
  8
BAT_PATRIMONIAL_L2000_PG
100
AcDbPolyline
 90
        8
 70
     1
 43
0.0
 10
298664.8879000004
 20
5061434.347100001
 10
298665.6879000003
 20
5061430.247099999
 10
298657.5878999997
 20
5061428.9471
 10
298656.8879000004
 20
5061433.6471
 10
298655.9879000001
 20
5061433.5471
 10
298653.9879000001
 20
5061446.847100001
 10
298663.3879000004
 20
5061448.247099999
 10
298665.6879000003
 20
5061434.5471
  0
LWPOLYLINE
  5
1BC
330
1F
100
AcDbEntity
  8
BAT_PATRIMONIAL_L2000_PG
100
AcDbPolyline
 90
        4
 70
     1
 43
0.0
 10
298684.0462999996
 20
5061455.6043
 10
298662.3463000003
 20
5061451.804300001
 10
298660.6463000001
 20
5061461.704299999
 10
298682.3463000003
 20
5061465.5043
  0
LWPOLYLINE
  5
1BD
330
1F
100
AcDbEntity
  8
BAT_PATRIMONIAL_L2000_PG
100
AcDbPolyline
 90
        6
 70
     1
 43
0.0
 10
286842.0451999996
 20
5051426.056
 10
286843.2357999999
 20
5051424.4023
 10
286843.5004000003
 20
5051424.6008
 10
286848.3620999996
 20
5051417.9068
 10
286840.4614000004
 20
5051412.4099
 10
286834.6699000001
 20
5051421.1281
  0
LWPOLYLINE
  5
1BE
330
1F
100
AcDbEntity
  8
BAT_PATRIMONIAL_L2000_PG
100
AcDbPolyline
 90
        4
 70
     1
 43
0.0
 10
289437.4000000004
 20
5053751.9
 10
289430.7999999998
 20
5053748.0
 10
289425.7000000002
 20
5053756.4
 10
289432.2999999998
 20
5053760.4
  0
LWPOLYLINE
  5
1BF
330
1F
100
AcDbEntity
  8
BAT_PATRIMONIAL_L2000_PG
100
AcDbPolyline
 90
        8
 70
     1
 43
0.0
 10
300318.9386
 20
5062070.191400001
 10
300319.4148000004
 20
5062065.323000001
 10
300311.8476999998
 20
5062064.5822
 10
300311.4243999999
 20
5062069.344699999
 10
300311.0528999995
 20
5062069.3144
 10
300309.0528999995
 20
5062084.8144
 10
300317.1529000001
 20
5062085.8144
 10
300319.1529000001
 20
5062070.3144
  0
LWPOLYLINE
  5
1C0
330
1F
100
AcDbEntity
  8
BAT_PATRIMONIAL_L2000_PG
100
AcDbPolyline
 90
        4
 70
     1
 43
0.0
 10
287437.4516000003
 20
5059877.220000001
 10
287437.4516000003
 20
5059874.68
 10
287435.0703999996
 20
5059874.759400001
 10
287435.1497
 20
5059877.378699999
  0
LWPOLYLINE
  5
1C1
330
1F
100
AcDbEntity
  8
BAT_PATRIMONIAL_L2000_PG
100
AcDbPolyline
 90
        4
 70
     1
 43
0.0
 10
287451.4000000004
 20
5059894.0
 10
287451.0999999996
 20
5059886.4
 10
287441.7999999998
 20
5059886.800000001
 10
287442.2000000002
 20
5059894.5
  0
LWPOLYLINE
  5
1C2
330
1F
100
AcDbEntity
  8
BAT_PATRIMONIAL_L2000_PG
100
AcDbPolyline
 90
        8
 70
     1
 43
0.0
 10
287460.0999999996
 20
5059809.1
 10
287460.7000000002
 20
5059805.9
 10
287454.7000000002
 20
5059804.800000001
 10
287454.0999999996
 20
5059808.1
 10
287439.2000000002
 20
5059805.6
 10
287436.2999999998
 20
5059822.0
 10
287467.0
 20
5059827.300000001
 10
287470.0
 20
5059810.9
  0
LWPOLYLINE
  5
1C3
330
1F
100
AcDbEntity
  8
BAT_PATRIMONIAL_L2000_PG
100
AcDbPolyline
 90
        8
 70
     1
 43
0.0
 10
279218.7999999998
 20
5043130.5
 10
279229.5
 20
5043115.699999999
 10
279222.5
 20
5043110.699999999
 10
279216.2999999998
 20
5043119.300000001
 10
279214.7000000002
 20
5043118.1
 10
279212.0
 20
5043121.9
 10
279213.5999999996
 20
5043123.1
 10
279211.9000000004
 20
5043125.6
  0
LWPOLYLINE
  5
1C4
330
1F
100
AcDbEntity
  8
BAT_PATRIMONIAL_L2000_PG
100
AcDbPolyline
 90
        6
 70
     1
 43
0.0
 10
286323.5
 20
5053970.300000001
 10
286318.2999999998
 20
5053965.699999999
 10
286312.4000000004
 20
5053972.5
 10
286312.0999999996
 20
5053972.800000001
 10
286312.4000000004
 20
5053973.0
 10
286317.2999999998
 20
5053977.300000001
  0
LWPOLYLINE
  5
1C5
330
1F
100
AcDbEntity
  8
BAT_PATRIMONIAL_L2000_PG
100
AcDbPolyline
 90
        4
 70
     1
 43
0.0
 10
289373.1534000002
 20
5045768.8705
 10
289367.2664000001
 20
5045766.158500001
 10
289363.5131999999
 20
5045774.8672
 10
289369.3831000002
 20
5045777.4695
  0
LWPOLYLINE
  5
1C6
330
1F
100
AcDbEntity
  8
BAT_PATRIMONIAL_L2000_PG
100
AcDbPolyline
 90
        4
 70
     1
 43
0.0
 10
289331.2000000002
 20
5060027.9
 10
289325.7000000002
 20
5060027.9
 10
289325.7000000002
 20
5060033.800000001
 10
289331.0999999996
 20
5060033.800000001
  0
LWPOLYLINE
  5
1C7
330
1F
100
AcDbEntity
  8
BAT_PATRIMONIAL_L2000_PG
100
AcDbPolyline
 90
        4
 70
     1
 43
0.0
 10
278071.6635999996
 20
5045105.0867
 10
278070.2347999997
 20
5045104.24
 10
278069.3881000001
 20
5045105.774599999
 10
278070.8169
 20
5045106.5154
  0
LWPOLYLINE
  5
1C8
330
1F
100
AcDbEntity
  8
BAT_PATRIMONIAL_L2000_PG
100
AcDbPolyline
 90
        8
 70
     1
 43
0.0
 10
286415.0
 20
5050572.4
 10
286425.0999999996
 20
5050561.699999999
 10
286406.9000000004
 20
5050544.4
 10
286396.7999999998
 20
5050555.1
 10
286402.7999999998
 20
5050560.800000001
 10
286401.7000000002
 20
5050561.9
 10
286405.5
 20
5050565.5
 10
286406.5999999996
 20
5050564.4
  0
LWPOLYLINE
  5
1C9
330
1F
100
AcDbEntity
  8
BAT_PATRIMONIAL_L2000_PG
100
AcDbPolyline
 90
        4
 70
     1
 43
0.0
 10
283218.1142999995
 20
5045217.7413
 10
283212.7697000001
 20
5045213.732799999
 10
283206.9414999997
 20
5045221.538899999
 10
283212.2861000001
 20
5045225.5473
  0
LWPOLYLINE
  5
1CA
330
1F
100
AcDbEntity
  8
BAT_PATRIMONIAL_L2000_PG
100
AcDbPolyline
 90
        4
 70
     1
 43
0.0
 10
283212.7714
 20
5045207.859999999
 10
283204.2548000002
 20
5045201.1971
 10
283199.2938999999
 20
5045207.282600001
 10
283207.9682
 20
5045214.0056
  0
LWPOLYLINE
  5
1CB
330
1F
100
AcDbEntity
  8
BAT_PATRIMONIAL_L2000_PG
100
AcDbPolyline
 90
        4
 70
     1
 43
0.0
 10
291564.9000000004
 20
5055239.0
 10
291557.2999999998
 20
5055233.199999999
 10
291553.2999999998
 20
5055238.6
 10
291560.9000000004
 20
5055244.300000001
  0
LWPOLYLINE
  5
1CC
330
1F
100
AcDbEntity
  8
BAT_PATRIMONIAL_L2000_PG
100
AcDbPolyline
 90
        6
 70
     1
 43
0.0
 10
300126.9424999999
 20
5062005.2358
 10
300117.3425000003
 20
5062005.2358
 10
300117.2424999997
 20
5062017.8358
 10
300127.1425000001
 20
5062017.935799999
 10
300127.2424999997
 20
5062006.1358
 10
300126.8425000003
 20
5062006.1358
  0
LWPOLYLINE
  5
1CD
330
1F
100
AcDbEntity
  8
BAT_PATRIMONIAL_L2000_PG
100
AcDbPolyline
 90
        4
 70
     1
 43
0.0
 10
290916.2000000002
 20
5060456.6
 10
290914.4000000004
 20
5060447.1
 10
290899.0
 20
5060449.800000001
 10
290900.9000000004
 20
5060459.9
  0
LWPOLYLINE
  5
1CE
330
1F
100
AcDbEntity
  8
BAT_PATRIMONIAL_L2000_PG
100
AcDbPolyline
 90
        4
 70
     1
 43
0.0
 10
283960.7000000002
 20
5052538.6
 10
283952.9000000004
 20
5052537.1
 10
283951.0
 20
5052546.699999999
 10
283958.7999999998
 20
5052548.300000001
  0
LWPOLYLINE
  5
1CF
330
1F
100
AcDbEntity
  8
BAT_PATRIMONIAL_L2000_PG
100
AcDbPolyline
 90
        6
 70
     1
 43
0.0
 10
283970.0999999996
 20
5052578.5
 10
283949.2999999998
 20
5052575.800000001
 10
283947.5999999996
 20
5052589.6
 10
283953.5999999996
 20
5052590.4
 10
283953.5
 20
5052590.800000001
 10
283968.2999999998
 20
5052592.699999999
  0
LWPOLYLINE
  5
1D0
330
1F
100
AcDbEntity
  8
BAT_PATRIMONIAL_L2000_PG
100
AcDbPolyline
 90
        4
 70
     1
 43
0.0
 10
291438.5999999996
 20
5060467.699999999
 10
291432.7999999998
 20
5060466.699999999
 10
291431.5999999996
 20
5060474.1
 10
291437.5
 20
5060475.0
  0
LWPOLYLINE
  5
1D1
330
1F
100
AcDbEntity
  8
BAT_PATRIMONIAL_L2000_PG
100
AcDbPolyline
 90
        4
 70
     1
 43
0.0
 10
291444.0
 20
5060465.1
 10
291439.2999999998
 20
5060464.4
 10
291437.7000000002
 20
5060474.6
 10
291442.4000000004
 20
5060475.300000001
  0
LWPOLYLINE
  5
1D2
330
1F
100
AcDbEntity
  8
BAT_PATRIMONIAL_L2000_PG
100
AcDbPolyline
 90
        8
 70
     1
 43
0.0
 10
295514.7000000002
 20
5055954.9
 10
295516.7000000002
 20
5055952.300000001
 10
295518.7000000002
 20
5055953.800000001
 10
295520.4000000004
 20
5055951.6
 10
295518.4000000004
 20
5055950.1
 10
295518.7000000002
 20
5055949.800000001
 10
295511.4000000004
 20
5055944.0
 10
295507.2999999998
 20
5055949.1
  0
LWPOLYLINE
  5
1D3
330
1F
100
AcDbEntity
  8
BAT_PATRIMONIAL_L2000_PG
100
AcDbPolyline
 90
        4
 70
     1
 43
0.0
 10
295512.0
 20
5055976.699999999
 10
295506.7000000002
 20
5055972.199999999
 10
295498.7000000002
 20
5055981.800000001
 10
295503.9000000004
 20
5055986.199999999
  0
LWPOLYLINE
  5
1D4
330
1F
100
AcDbEntity
  8
BAT_PATRIMONIAL_L2000_PG
100
AcDbPolyline
 90
        4
 70
     1
 43
0.0
 10
287846.5999999996
 20
5052232.699999999
 10
287839.7999999998
 20
5052227.9
 10
287834.2999999998
 20
5052235.699999999
 10
287841.0999999996
 20
5052240.5
  0
LWPOLYLINE
  5
1D5
330
1F
100
AcDbEntity
  8
BAT_PATRIMONIAL_L2000_PG
100
AcDbPolyline
 90
        4
 70
     1
 43
0.0
 10
283745.7999999998
 20
5054681.0
 10
283740.2000000002
 20
5054679.199999999
 10
283734.5999999996
 20
5054696.199999999
 10
283740.2000000002
 20
5054698.1
  0
LWPOLYLINE
  5
1D6
330
1F
100
AcDbEntity
  8
BAT_PATRIMONIAL_L2000_PG
100
AcDbPolyline
 90
       18
 70
     1
 43
0.0
 10
284030.0999999996
 20
5045567.0
 10
284033.7999999998
 20
5045568.5
 10
284032.4000000004
 20
5045571.800000001
 10
284036.2999999998
 20
5045573.300000001
 10
284037.2000000002
 20
5045571.300000001
 10
284043.5
 20
5045573.800000001
 10
284043.9000000004
 20
5045572.800000001
 10
284047.2000000002
 20
5045574.199999999
 10
284049.7999999998
 20
5045567.800000001
 10
284046.5
 20
5045566.4
 10
284046.9000000004
 20
5045565.4
 10
284042.9000000004
 20
5045563.800000001
 10
284043.5
 20
5045562.300000001
 10
284038.2000000002
 20
5045560.199999999
 10
284037.5999999996
 20
5045561.699999999
 10
284036.7999999998
 20
5045561.4
 10
284036.5999999996
 20
5045561.800000001
 10
284032.7999999998
 20
5045560.199999999
  0
LWPOLYLINE
  5
1D7
330
1F
100
AcDbEntity
  8
BAT_PATRIMONIAL_L2000_PG
100
AcDbPolyline
 90
       37
 70
     1
 43
0.0
 10
283896.0999999996
 20
5045257.800000001
 10
283884.7000000002
 20
5045248.1
 10
283887.7999999998
 20
5045244.5
 10
283883.7000000002
 20
5045241.1
 10
283880.5999999996
 20
5045244.5
 10
283875.0
 20
5045239.699999999
 10
283873.9000000004
 20
5045239.6
 10
283871.7999999998
 20
5045242.4
 10
283871.9000000004
 20
5045245.0
 10
283869.7000000002
 20
5045245.1
 10
283859.5999999996
 20
5045236.5
 10
283850.0
 20
5045247.699999999
 10
283883.0999999996
 20
5045275.800000001
 10
283874.7999999998
 20
5045285.6
 10
283886.5999999996
 20
5045295.699999999
 10
283894.9000000004
 20
5045286.0
 10
283908.0999999996
 20
5045297.199999999
 10
283918.7000000002
 20
5045284.699999999
 10
283913.7999999998
 20
5045280.6
 10
283924.2999999998
 20
5045268.199999999
 10
283931.4000000004
 20
5045267.6
 10
283936.0999999996
 20
5045271.6
 10
283948.2999999998
 20
5045257.300000001
 10
283941.0
 20
5045251.1
 10
283928.7000000002
 20
5045265.5
 10
283924.5999999996
 20
5045265.800000001
 10
283924.2999999998
 20
5045262.0
 10
283921.7000000002
 20
5045259.800000001
 10
283918.2000000002
 20
5045260.1
 10
283917.7999999998
 20
5045259.699999999
 10
283918.0999999996
 20
5045259.300000001
 10
283917.0
 20
5045254.699999999
 10
283913.5999999996
 20
5045252.0
 10
283909.5
 20
5045252.4
 10
283908.0
 20
5045254.1
 10
283903.0
 20
5045249.800000001
 10
283896.2000000002
 20
5045257.800000001
  0
LWPOLYLINE
  5
1D8
330
1F
100
AcDbEntity
  8
BAT_PATRIMONIAL_L2000_PG
100
AcDbPolyline
 90
        4
 70
     1
 43
0.0
 10
282025.5130000003
 20
5044547.6546
 10
282034.4129999997
 20
5044555.0546
 10
282040.6129999999
 20
5044547.5546
 10
282031.7130000005
 20
5044540.1546
  0
LWPOLYLINE
  5
1D9
330
1F
100
AcDbEntity
  8
BAT_PATRIMONIAL_L2000_PG
100
AcDbPolyline
 90
        6
 70
     1
 43
0.0
 10
295073.2999999998
 20
5061261.199999999
 10
295082.2000000002
 20
5061263.800000001
 10
295084.4000000004
 20
5061256.0
 10
295081.2000000002
 20
5061255.0
 10
295081.5999999996
 20
5061253.6
 10
295076.0
 20
5061252.0
  0
LWPOLYLINE
  5
1DA
330
1F
100
AcDbEntity
  8
BAT_PATRIMONIAL_L2000_PG
100
AcDbPolyline
 90
       12
 70
     1
 43
0.0
 10
288979.0
 20
5045601.6
 10
288981.0
 20
5045598.6
 10
288983.0
 20
5045599.9
 10
288984.0999999996
 20
5045598.199999999
 10
288984.7000000002
 20
5045598.5
 10
288986.2999999998
 20
5045596.1
 10
288984.0
 20
5045594.699999999
 10
288984.5
 20
5045593.9
 10
288979.7999999998
 20
5045590.9
 10
288979.2000000002
 20
5045591.800000001
 10
288976.0999999996
 20
5045589.800000001
 10
288971.5999999996
 20
5045596.699999999
  0
LWPOLYLINE
  5
1DB
330
1F
100
AcDbEntity
  8
BAT_PATRIMONIAL_L2000_PG
100
AcDbPolyline
 90
        8
 70
     1
 43
0.0
 10
286314.2000000002
 20
5055432.800000001
 10
286318.5999999996
 20
5055427.4
 10
286315.4000000004
 20
5055424.800000001
 10
286316.5999999996
 20
5055423.300000001
 10
286308.7000000002
 20
5055417.1
 10
286302.2000000002
 20
5055425.199999999
 10
286310.0999999996
 20
5055431.5
 10
286311.0999999996
 20
5055430.300000001
  0
LWPOLYLINE
  5
1DC
330
1F
100
AcDbEntity
  8
BAT_PATRIMONIAL_L2000_PG
100
AcDbPolyline
 90
       28
 70
     1
 43
0.0
 10
286632.5
 20
5044068.199999999
 10
286637.4000000004
 20
5044062.199999999
 10
286638.2000000002
 20
5044062.800000001
 10
286638.9000000004
 20
5044061.9
 10
286639.9000000004
 20
5044062.699999999
 10
286643.0999999996
 20
5044058.9
 10
286638.9000000004
 20
5044055.5
 10
286638.4000000004
 20
5044056.1
 10
286628.5999999996
 20
5044048.0
 10
286629.5
 20
5044046.9
 10
286616.0999999996
 20
5044036.0
 10
286615.5
 20
5044036.699999999
 10
286605.7000000002
 20
5044028.699999999
 10
286606.5
 20
5044027.6
 10
286602.4000000004
 20
5044024.199999999
 10
286599.2000000002
 20
5044028.1
 10
286600.2000000002
 20
5044028.9
 10
286599.5
 20
5044029.699999999
 10
286601.7999999998
 20
5044031.6
 10
286597.5999999996
 20
5044036.699999999
 10
286594.9000000004
 20
5044034.6
 10
286587.7999999998
 20
5044043.300000001
 10
286600.5999999996
 20
5044053.9
 10
286597.0
 20
5044058.199999999
 10
286610.7000000002
 20
5044069.5
 10
286613.7000000002
 20
5044065.9
 10
286626.7000000002
 20
5044076.5
 10
286633.0999999996
 20
5044068.699999999
  0
LWPOLYLINE
  5
1DD
330
1F
100
AcDbEntity
  8
BAT_PATRIMONIAL_L2000_PG
100
AcDbPolyline
 90
       12
 70
     1
 43
0.0
 10
285628.7000000002
 20
5058405.4
 10
285616.0
 20
5058396.4
 10
285614.2999999998
 20
5058398.800000001
 10
285613.9000000004
 20
5058398.5
 10
285610.2000000002
 20
5058403.699999999
 10
285610.9000000004
 20
5058404.199999999
 10
285609.5999999996
 20
5058406.1
 10
285612.7999999998
 20
5058408.4
 10
285610.7999999998
 20
5058411.199999999
 10
285622.5
 20
5058419.5
 10
285629.4000000004
 20
5058409.800000001
 10
285626.9000000004
 20
5058408.0
  0
LWPOLYLINE
  5
1DE
330
1F
100
AcDbEntity
  8
BAT_PATRIMONIAL_L2000_PG
100
AcDbPolyline
 90
        4
 70
     1
 43
0.0
 10
298632.7000000002
 20
5061464.5
 10
298621.0999999996
 20
5061462.199999999
 10
298618.5999999996
 20
5061475.1
 10
298630.2000000002
 20
5061477.4
  0
LWPOLYLINE
  5
1DF
330
1F
100
AcDbEntity
  8
BAT_PATRIMONIAL_L2000_PG
100
AcDbPolyline
 90
       17
 70
     1
 43
0.0
 10
286857.7300000004
 20
5051430.2588
 10
286862.9299999997
 20
5051423.6588
 10
286863.2300000004
 20
5051423.8588
 10
286864.4299999997
 20
5051422.2588
 10
286856.7300000004
 20
5051416.2588
 10
286856.4299999997
 20
5051416.1588
 10
286856.1299999999
 20
5051416.058800001
 10
286855.7300000004
 20
5051416.058800001
 10
286855.2300000004
 20
5051416.058800001
 10
286854.8300000001
 20
5051416.2588
 10
286854.4299999997
 20
5051416.458799999
 10
286854.1299999999
 20
5051416.6588
 10
286847.2300000004
 20
5051426.058800001
 10
286850.2300000004
 20
5051428.3588
 10
286851.1299999999
 20
5051427.1588
 10
286854.9299999997
 20
5051430.058800001
 10
286855.9299999997
 20
5051428.7588
  0
LWPOLYLINE
  5
1E0
330
1F
100
AcDbEntity
  8
BAT_PATRIMONIAL_L2000_PG
100
AcDbPolyline
 90
        4
 70
     1
 43
0.0
 10
289455.7999999998
 20
5053761.6
 10
289446.0
 20
5053755.300000001
 10
289438.7000000002
 20
5053766.5
 10
289448.5
 20
5053772.800000001
  0
LWPOLYLINE
  5
1E1
330
1F
100
AcDbEntity
  8
BAT_PATRIMONIAL_L2000_PG
100
AcDbPolyline
 90
        6
 70
     1
 43
0.0
 10
300325.4550000001
 20
5062105.342399999
 10
300309.1550000003
 20
5062101.7633
 10
300307.6617999999
 20
5062108.564999999
 10
300314.1490000002
 20
5062109.989399999
 10
300313.4590999996
 20
5062113.131999999
 10
300323.2715999996
 20
5062115.286599999
  0
LWPOLYLINE
  5
1E2
330
1F
100
AcDbEntity
  8
BAT_PATRIMONIAL_L2000_PG
100
AcDbPolyline
 90
       10
 70
     1
 43
0.0
 10
287462.7999999998
 20
5059891.1
 10
287462.7999999998
 20
5059886.699999999
 10
287463.9000000004
 20
5059886.699999999
 10
287464.0
 20
5059883.0
 10
287465.0999999996
 20
5059883.0
 10
287465.2000000002
 20
5059874.9
 10
287464.7999999998
 20
5059874.9
 10
287464.7999999998
 20
5059873.6
 10
287455.2000000002
 20
5059873.4
 10
287454.9000000004
 20
5059890.9
  0
LWPOLYLINE
  5
1E3
330
1F
100
AcDbEntity
  8
BAT_PATRIMONIAL_L2000_PG
100
AcDbPolyline
 90
       10
 70
     1
 43
0.0
 10
279243.0
 20
5043101.9
 10
279244.2000000002
 20
5043100.300000001
 10
279244.9000000004
 20
5043100.9
 10
279248.9000000004
 20
5043095.6
 10
279246.0999999996
 20
5043093.4
 10
279248.2999999998
 20
5043090.5
 10
279239.7999999998
 20
5043084.0
 10
279233.2999999998
 20
5043092.5
 10
279241.0
 20
5043098.300000001
 10
279240.0
 20
5043099.6
  0
LWPOLYLINE
  5
1E4
330
1F
100
AcDbEntity
  8
BAT_PATRIMONIAL_L2000_PG
100
AcDbPolyline
 90
        4
 70
     1
 43
0.0
 10
286320.5999999996
 20
5053955.5
 10
286312.0999999996
 20
5053947.9
 10
286301.9000000004
 20
5053959.199999999
 10
286310.4000000004
 20
5053966.800000001
  0
LWPOLYLINE
  5
1E5
330
1F
100
AcDbEntity
  8
BAT_PATRIMONIAL_L2000_PG
100
AcDbPolyline
 90
       13
 70
     1
 43
0.0
 10
289387.0999999996
 20
5045801.355599999
 10
289388.7999999998
 20
5045795.855599999
 10
289390.2000000002
 20
5045796.2556
 10
289394.0158000002
 20
5045784.269300001
 10
289379.9267999995
 20
5045779.2289
 10
289375.5999999996
 20
5045791.7556
 10
289379.0
 20
5045792.7556
 10
289378.2999999998
 20
5045795.1556
 10
289379.2000000002
 20
5045795.355599999
 10
289378.7000000002
 20
5045797.055600001
 10
289379.0932999998
 20
5045797.128
 10
289378.6171000004
 20
5045798.675899999
 10
289382.7999999998
 20
5045800.055600001
  0
LWPOLYLINE
  5
1E6
330
1F
100
AcDbEntity
  8
BAT_PATRIMONIAL_L2000_PG
100
AcDbPolyline
 90
       10
 70
     1
 43
0.0
 10
289352.0
 20
5060038.0
 10
289352.0999999996
 20
5060036.4
 10
289360.0999999996
 20
5060037.0
 10
289360.5999999996
 20
5060031.300000001
 10
289352.5
 20
5060030.800000001
 10
289352.7999999998
 20
5060026.300000001
 10
289337.2000000002
 20
5060025.1
 10
289336.5
 20
5060034.9
 10
289341.0
 20
5060035.199999999
 10
289340.7999999998
 20
5060037.1
  0
LWPOLYLINE
  5
1E7
330
1F
100
AcDbEntity
  8
BAT_PATRIMONIAL_L2000_PG
100
AcDbPolyline
 90
       10
 70
     1
 43
0.0
 10
278081.7471000003
 20
5045107.0821
 10
278073.4471000005
 20
5045102.382099999
 10
278069.1470999997
 20
5045110.0821
 10
278074.1470999997
 20
5045112.982100001
 10
278072.3470999999
 20
5045116.0821
 10
278073.8470999999
 20
5045116.882099999
 10
278069.7471000003
 20
5045123.982100001
 10
278076.1470999997
 20
5045127.5821
 10
278080.9471000005
 20
5045118.982100001
 10
278076.4471000005
 20
5045116.382099999
  0
LWPOLYLINE
  5
1E8
330
1F
100
AcDbEntity
  8
BAT_PATRIMONIAL_L2000_PG
100
AcDbPolyline
 90
       12
 70
     1
 43
0.0
 10
286417.2000000002
 20
5050530.0
 10
286427.9000000004
 20
5050519.9
 10
286428.5
 20
5050520.6
 10
286432.9000000004
 20
5050516.5
 10
286432.4000000004
 20
5050515.9
 10
286439.5
 20
5050509.300000001
 10
286432.0999999996
 20
5050501.300000001
 10
286424.9000000004
 20
5050508.0
 10
286427.5
 20
5050510.800000001
 10
286423.5999999996
 20
5050514.4
 10
286422.0
 20
5050512.699999999
 10
286410.7999999998
 20
5050523.1
  0
LWPOLYLINE
  5
1E9
330
1F
100
AcDbEntity
  8
BAT_PATRIMONIAL_L2000_PG
100
AcDbPolyline
 90
       12
 70
     1
 43
0.0
 10
283192.2918999996
 20
5045231.6031
 10
283192.9918999998
 20
5045230.6031
 10
283193.3919000002
 20
5045230.903100001
 10
283199.1919
 20
5045223.0031
 10
283194.6919
 20
5045219.7031
 10
283196.8919000002
 20
5045216.7031
 10
283190.3919000002
 20
5045211.903100001
 10
283187.8919000002
 20
5045215.2031
 10
283188.6919
 20
5045215.803099999
 10
283183.0919000003
 20
5045223.403100001
 10
283183.5919000003
 20
5045223.7031
 10
283182.8919000002
 20
5045224.6031
  0
LWPOLYLINE
  5
1EA
330
1F
100
AcDbEntity
  8
BAT_PATRIMONIAL_L2000_PG
100
AcDbPolyline
 90
        4
 70
     1
 43
0.0
 10
291548.0999999996
 20
5055233.800000001
 10
291537.2999999998
 20
5055225.4
 10
291529.7999999998
 20
5055235.199999999
 10
291540.5999999996
 20
5055243.6
  0
LWPOLYLINE
  5
1EB
330
1F
100
AcDbEntity
  8
BAT_PATRIMONIAL_L2000_PG
100
AcDbPolyline
 90
       14
 70
     1
 43
0.0
 10
300121.5367000001
 20
5062053.818299999
 10
300121.9367000004
 20
5062052.018300001
 10
300127.2367000002
 20
5062053.018300001
 10
300129.9713000003
 20
5062038.3588
 10
300123.8197999997
 20
5062037.3005
 10
300122.3366999999
 20
5062043.818299999
 10
300114.5367000001
 20
5062042.318299999
 10
300114.5367000001
 20
5062042.818299999
 10
300112.4367000004
 20
5062042.418299999
 10
300112.2367000002
 20
5062043.418299999
 10
300110.4367000004
 20
5062043.1183
 10
300108.9367000004
 20
5062051.318299999
 10
300112.8366999999
 20
5062052.1183
 10
300112.8366999999
 20
5062052.2183
  0
LWPOLYLINE
  5
1EC
330
1F
100
AcDbEntity
  8
BAT_PATRIMONIAL_L2000_PG
100
AcDbPolyline
 90
        4
 70
     1
 43
0.0
 10
290923.7999999998
 20
5060436.300000001
 10
290923.2999999998
 20
5060426.9
 10
290908.5999999996
 20
5060427.699999999
 10
290909.0999999996
 20
5060437.1
  0
LWPOLYLINE
  5
1ED
330
1F
100
AcDbEntity
  8
BAT_PATRIMONIAL_L2000_PG
100
AcDbPolyline
 90
       12
 70
     1
 43
0.0
 10
283946.4000000004
 20
5052540.4
 10
283947.0
 20
5052536.0
 10
283955.5999999996
 20
5052537.1
 10
283956.2999999998
 20
5052532.0
 10
283960.4000000004
 20
5052532.6
 10
283960.5999999996
 20
5052531.1
 10
283956.5
 20
5052530.5
 10
283956.7999999998
 20
5052528.1
 10
283940.4000000004
 20
5052525.9
 10
283939.2000000002
 20
5052534.5
 10
283938.4000000004
 20
5052534.4
 10
283937.7999999998
 20
5052539.199999999
  0
LWPOLYLINE
  5
1EE
330
1F
100
AcDbEntity
  8
BAT_PATRIMONIAL_L2000_PG
100
AcDbPolyline
 90
        8
 70
     1
 43
0.0
 10
291429.0790999997
 20
5060454.8397
 10
291419.1527000004
 20
5060454.168
 10
291418.2813999997
 20
5060467.0429
 10
291426.7083999999
 20
5060467.6132
 10
291426.5544999996
 20
5060469.8872
 10
291431.9737
 20
5060470.253900001
 10
291432.5936000003
 20
5060461.092700001
 10
291428.6738999998
 20
5060460.827500001
  0
LWPOLYLINE
  5
1EF
330
1F
100
AcDbEntity
  8
BAT_PATRIMONIAL_L2000_PG
100
AcDbPolyline
 90
        8
 70
     1
 43
0.0
 10
295532.0
 20
5055981.199999999
 10
295540.2000000002
 20
5055972.699999999
 10
295533.2000000002
 20
5055965.9
 10
295530.9000000004
 20
5055968.300000001
 10
295528.9000000004
 20
5055966.4
 10
295521.2999999998
 20
5055974.199999999
 10
295526.0999999996
 20
5055978.800000001
 10
295527.7999999998
 20
5055977.1
  0
LWPOLYLINE
  5
1F0
330
1F
100
AcDbEntity
  8
BAT_PATRIMONIAL_L2000_PG
100
AcDbPolyline
 90
        7
 70
     1
 43
0.0
 10
287861.2000000002
 20
5052221.9
 10
287851.0999999996
 20
5052214.9
 10
287844.0
 20
5052225.300000001
 10
287857.2000000002
 20
5052234.6
 10
287862.2000000002
 20
5052227.800000001
 10
287859.9000000004
 20
5052226.1
 10
287861.5999999996
 20
5052223.699999999
  0
LWPOLYLINE
  5
1F1
330
1F
100
AcDbEntity
  8
BAT_PATRIMONIAL_L2000_PG
100
AcDbPolyline
 90
        4
 70
     1
 43
0.0
 10
283743.2000000002
 20
5054668.199999999
 10
283733.2999999998
 20
5054660.4
 10
283725.9000000004
 20
5054670.300000001
 10
283735.4000000004
 20
5054678.4
  0
LWPOLYLINE
  5
1F2
330
1F
100
AcDbEntity
  8
BAT_PATRIMONIAL_L2000_PG
100
AcDbPolyline
 90
        4
 70
     1
 43
0.0
 10
292469.9824000001
 20
5050215.5288
 10
292462.0354000004
 20
5050221.325099999
 10
292465.9000000004
 20
5050226.699999999
 10
292473.9000000004
 20
5050221.0
  0
LWPOLYLINE
  5
1F3
330
1F
100
AcDbEntity
  8
BAT_PATRIMONIAL_L2000_PG
100
AcDbPolyline
 90
        6
 70
     1
 43
0.0
 10
292469.9824000001
 20
5050215.5288
 10
292468.0999999996
 20
5050212.9
 10
292470.9000000004
 20
5050210.9
 10
292467.9000000004
 20
5050206.800000001
 10
292457.2000000002
 20
5050214.6
 10
292462.0354000004
 20
5050221.325099999
  0
LWPOLYLINE
  5
1F4
330
1F
100
AcDbEntity
  8
BAT_PATRIMONIAL_L2000_PG
100
AcDbPolyline
 90
        8
 70
     1
 43
0.0
 10
276097.9000000004
 20
5046089.1
 10
276088.4000000004
 20
5046082.6
 10
276083.0999999996
 20
5046090.199999999
 10
276085.7999999998
 20
5046092.1
 10
276084.7999999998
 20
5046093.5
 10
276088.7000000002
 20
5046096.199999999
 10
276089.7000000002
 20
5046094.800000001
 10
276092.5
 20
5046096.800000001
  0
LWPOLYLINE
  5
1F5
330
1F
100
AcDbEntity
  8
BAT_PATRIMONIAL_L2000_PG
100
AcDbPolyline
 90
       12
 70
     1
 43
0.0
 10
282061.0
 20
5048845.4
 10
282055.5999999996
 20
5048844.6
 10
282055.7000000002
 20
5048844.199999999
 10
282047.4000000004
 20
5048843.1
 10
282046.5
 20
5048850.0
 10
282050.7999999998
 20
5048850.6
 10
282050.4000000004
 20
5048853.800000001
 10
282051.7999999998
 20
5048854.0
 10
282051.2000000002
 20
5048858.6
 10
282057.0
 20
5048859.4
 10
282058.0999999996
 20
5048852.0
 10
282060.0
 20
5048852.199999999
  0
LWPOLYLINE
  5
1F6
330
1F
100
AcDbEntity
  8
BAT_PATRIMONIAL_L2000_PG
100
AcDbPolyline
 90
        4
 70
     1
 43
0.0
 10
292085.7999999998
 20
5055828.1
 10
292075.7000000002
 20
5055823.5
 10
292071.5
 20
5055832.9
 10
292081.5999999996
 20
5055837.4
  0
LWPOLYLINE
  5
1F7
330
1F
100
AcDbEntity
  8
BAT_PATRIMONIAL_L2000_PG
100
AcDbPolyline
 90
        8
 70
     1
 43
0.0
 10
289143.2000000002
 20
5052913.5
 10
289134.9000000004
 20
5052922.1
 10
289142.5
 20
5052929.300000001
 10
289142.7000000002
 20
5052929.199999999
 10
289146.2000000002
 20
5052932.5
 10
289150.7999999998
 20
5052927.699999999
 10
289148.2999999998
 20
5052925.4
 10
289151.9000000004
 20
5052921.699999999
  0
LWPOLYLINE
  5
1F8
330
1F
100
AcDbEntity
  8
BAT_PATRIMONIAL_L2000_PG
100
AcDbPolyline
 90
        8
 70
     1
 43
0.0
 10
297291.2000000002
 20
5057322.699999999
 10
297297.7999999998
 20
5057315.5
 10
297289.0999999996
 20
5057307.5
 10
297286.0
 20
5057310.800000001
 10
297283.0999999996
 20
5057308.1
 10
297278.0999999996
 20
5057313.6
 10
297281.4000000004
 20
5057316.699999999
 10
297282.9000000004
 20
5057315.1
  0
LWPOLYLINE
  5
1F9
330
1F
100
AcDbEntity
  8
BAT_PATRIMONIAL_L2000_PG
100
AcDbPolyline
 90
        4
 70
     1
 43
0.0
 10
296529.0
 20
5060962.1
 10
296531.5999999996
 20
5060974.800000001
 10
296543.0999999996
 20
5060972.5
 10
296540.5
 20
5060959.800000001
  0
LWPOLYLINE
  5
1FA
330
1F
100
AcDbEntity
  8
BAT_PATRIMONIAL_L2000_PG
100
AcDbPolyline
 90
       14
 70
     1
 43
0.0
 10
289761.4000000004
 20
5060173.1
 10
289767.0999999996
 20
5060164.1
 10
289756.7999999998
 20
5060157.0
 10
289759.2999999998
 20
5060152.800000001
 10
289749.5
 20
5060147.1
 10
289746.5
 20
5060152.300000001
 10
289745.9000000004
 20
5060151.9
 10
289743.5999999996
 20
5060157.0
 10
289746.0
 20
5060158.4
 10
289743.9000000004
 20
5060162.0
 10
289751.0999999996
 20
5060166.199999999
 10
289753.0999999996
 20
5060162.699999999
 10
289756.2999999998
 20
5060164.5
 10
289754.2000000002
 20
5060168.199999999
  0
LWPOLYLINE
  5
1FB
330
1F
100
AcDbEntity
  8
BAT_PATRIMONIAL_L2000_PG
100
AcDbPolyline
 90
       14
 70
     1
 43
0.0
 10
275177.2999999998
 20
5042737.5
 10
275181.7000000002
 20
5042748.699999999
 10
275187.0
 20
5042746.6
 10
275186.7999999998
 20
5042746.0
 10
275188.5
 20
5042745.300000001
 10
275190.2999999998
 20
5042750.1
 10
275195.0999999996
 20
5042748.199999999
 10
275193.4000000004
 20
5042744.1
 10
275198.5999999996
 20
5042742.0
 10
275194.2000000002
 20
5042730.9
 10
275188.2999999998
 20
5042733.199999999
 10
275188.4000000004
 20
5042733.5
 10
275185.2000000002
 20
5042734.699999999
 10
275185.0999999996
 20
5042734.4
  0
LWPOLYLINE
  5
1FC
330
1F
100
AcDbEntity
  8
BAT_PATRIMONIAL_L2000_PG
100
AcDbPolyline
 90
       14
 70
     1
 43
0.0
 10
283847.0
 20
5042602.5
 10
283852.5
 20
5042591.0
 10
283848.4000000004
 20
5042589.1
 10
283849.7000000002
 20
5042586.199999999
 10
283837.0999999996
 20
5042580.199999999
 10
283835.2000000002
 20
5042584.4
 10
283829.0999999996
 20
5042581.5
 10
283823.9000000004
 20
5042592.4
 10
283830.9000000004
 20
5042595.699999999
 10
283832.5
 20
5042592.300000001
 10
283836.2999999998
 20
5042594.1
 10
283836.7999999998
 20
5042593.1
 10
283841.5
 20
5042595.300000001
 10
283839.7000000002
 20
5042599.0
  0
LWPOLYLINE
  5
1FD
330
1F
100
AcDbEntity
  8
BAT_PATRIMONIAL_L2000_PG
100
AcDbPolyline
 90
       44
 70
     1
 43
0.0
 10
290016.7999999998
 20
5046188.300000001
 10
290061.2999999998
 20
5046131.800000001
 10
290072.7999999998
 20
5046140.9
 10
290051.0999999996
 20
5046168.4
 10
290070.2000000002
 20
5046183.5
 10
290092.2000000002
 20
5046155.699999999
 10
290096.2000000002
 20
5046158.9
 10
290113.4000000004
 20
5046137.199999999
 10
290101.2000000002
 20
5046127.6
 10
290091.0
 20
5046140.5
 10
290087.7000000002
 20
5046137.9
 10
290092.0
 20
5046132.4
 10
290072.7999999998
 20
5046117.199999999
 10
290073.2000000002
 20
5046116.6
 10
290071.4000000004
 20
5046115.199999999
 10
290070.9000000004
 20
5046115.9
 10
290069.2999999998
 20
5046114.6
 10
290070.0
 20
5046113.699999999
 10
290062.5
 20
5046107.699999999
 10
290061.9000000004
 20
5046108.4
 10
290060.4000000004
 20
5046107.199999999
 10
290060.7999999998
 20
5046106.699999999
 10
290058.9000000004
 20
5046105.300000001
 10
290058.2000000002
 20
5046106.1
 10
290039.0
 20
5046091.0
 10
290034.2999999998
 20
5046096.9
 10
290030.7000000002
 20
5046094.1
 10
290041.0999999996
 20
5046080.9
 10
290029.2000000002
 20
5046071.5
 10
290019.0
 20
5046084.4
 10
290015.5
 20
5046081.6
 10
290021.0
 20
5046074.699999999
 10
290001.2000000002
 20
5046059.1
 10
289987.4000000004
 20
5046076.4
 10
290007.4000000004
 20
5046092.199999999
 10
290013.0999999996
 20
5046084.9
 10
290016.4000000004
 20
5046087.6
 10
290012.0
 20
5046093.1
 10
290024.2000000002
 20
5046102.699999999
 10
290028.7000000002
 20
5046097.0
 10
290032.2000000002
 20
5046099.800000001
 10
290027.7999999998
 20
5046105.5
 10
290047.5999999996
 20
5046121.1
 10
290003.0
 20
5046177.5
  0
LWPOLYLINE
  5
1FE
330
1F
100
AcDbEntity
  8
BAT_PATRIMONIAL_L2000_PG
100
AcDbPolyline
 90
       76
 70
     1
 43
0.0
 10
291001.1112000002
 20
5046705.942500001
 10
291001.7111999998
 20
5046705.6425
 10
291020.6112000002
 20
5046732.442500001
 10
291023.4112
 20
5046732.942500001
 10
291025.9112
 20
5046731.1425
 10
291031.0111999996
 20
5046738.7425
 10
291024.1112000002
 20
5046743.342499999
 10
291022.2111999998
 20
5046740.342499999
 10
291016.7111999998
 20
5046744.0425
 10
291018.8112000003
 20
5046747.1425
 10
291008.5111999996
 20
5046754.0425
 10
291016.8112000003
 20
5046765.942500001
 10
291041.6112000002
 20
5046749.1425
 10
291042.1112000002
 20
5046750.0425
 10
291041.3112000003
 20
5046750.6425
 10
291044.5111999996
 20
5046755.2425
 10
291042.4112
 20
5046756.6425
 10
291046.7111999998
 20
5046762.842499999
 10
291042.7111999998
 20
5046765.5425
 10
291060.8112000003
 20
5046791.442500001
 10
291078.0111999996
 20
5046779.842499999
 10
291059.8112000003
 20
5046753.7425
 10
291055.9112
 20
5046756.442500001
 10
291052.5111999996
 20
5046751.342499999
 10
291056.5111999996
 20
5046748.5425
 10
291049.3112000003
 20
5046737.7425
 10
291051.4112
 20
5046736.342499999
 10
291050.1112000002
 20
5046734.442500001
 10
291051.8112000003
 20
5046733.342499999
 10
291049.6112000002
 20
5046730.1425
 10
291047.8112000003
 20
5046731.342499999
 10
291046.7111999998
 20
5046729.842499999
 10
291044.6112000002
 20
5046731.2425
 10
291037.7111999998
 20
5046721.342499999
 10
291028.0111999996
 20
5046727.842499999
 10
291010.9112
 20
5046703.342499999
 10
291021.0111999996
 20
5046696.5425
 10
291014.1112000002
 20
5046686.7425
 10
291016.0111999996
 20
5046685.5425
 10
291011.5111999996
 20
5046678.942500001
 10
291009.8112000003
 20
5046680.1425
 10
291003.3112000003
 20
5046670.842499999
 10
291002.0111999996
 20
5046671.6425
 10
291001.1112000002
 20
5046670.442500001
 10
291002.0111999996
 20
5046669.842499999
 10
291001.1112000002
 20
5046659.6425
 10
290999.0111999996
 20
5046636.5425
 10
290999.7111999998
 20
5046636.5425
 10
291001.1112000002
 20
5046635.6425
 10
291001.7111999998
 20
5046635.1425
 10
291001.2111999998
 20
5046629.342499999
 10
291001.1112000002
 20
5046629.2425
 10
290999.3112000003
 20
5046628.1425
 10
290992.6112000002
 20
5046628.7425
 10
290990.9112
 20
5046629.842499999
 10
290991.1112000002
 20
5046631.442500001
 10
290988.1112000002
 20
5046631.6425
 10
290988.5111999996
 20
5046637.0425
 10
290979.9112
 20
5046637.842499999
 10
290982.9112
 20
5046671.442500001
 10
290987.7111999998
 20
5046670.942500001
 10
290992.9112
 20
5046678.442500001
 10
290994.1112000002
 20
5046677.6425
 10
290995.8112000003
 20
5046680.0425
 10
290961.9112
 20
5046702.942500001
 10
290966.4112
 20
5046709.342499999
 10
290957.5111999996
 20
5046715.342499999
 10
290963.0111999996
 20
5046723.2425
 10
290971.9112
 20
5046717.2425
 10
290976.1112000002
 20
5046723.2425
 10
290979.7111999998
 20
5046720.842499999
 10
290980.9112
 20
5046722.442500001
 10
290983.0111999996
 20
5046721.0425
 10
290989.7111999998
 20
5046730.442500001
 10
290997.8112000003
 20
5046724.7425
 10
290989.7111999998
 20
5046713.842499999
  0
LWPOLYLINE
  5
1FF
330
1F
100
AcDbEntity
  8
BAT_PATRIMONIAL_L2000_PG
100
AcDbPolyline
 90
        8
 70
     1
 43
0.0
 10
293479.9000000004
 20
5052095.800000001
 10
293490.7999999998
 20
5052092.4
 10
293489.2000000002
 20
5052087.300000001
 10
293493.5999999996
 20
5052085.9
 10
293490.7999999998
 20
5052076.699999999
 10
293481.5999999996
 20
5052079.6
 10
293482.5
 20
5052082.5
 10
293476.2999999998
 20
5052084.4
  0
LWPOLYLINE
  5
200
330
1F
100
AcDbEntity
  8
BAT_PATRIMONIAL_L2000_PG
100
AcDbPolyline
 90
        6
 70
     1
 43
0.0
 10
290955.2999999998
 20
5054537.6
 10
290947.7999999998
 20
5054546.699999999
 10
290959.7999999998
 20
5054556.6
 10
290965.4000000004
 20
5054549.9
 10
290960.5999999996
 20
5054545.9
 10
290962.5
 20
5054543.5
  0
LWPOLYLINE
  5
201
330
1F
100
AcDbEntity
  8
BAT_PATRIMONIAL_L2000_PG
100
AcDbPolyline
 90
       52
 70
     1
 43
0.0
 10
289254.9000000004
 20
5046113.199999999
 10
289272.2000000002
 20
5046088.0
 10
289272.7999999998
 20
5046088.4
 10
289283.2999999998
 20
5046073.1
 10
289282.9000000004
 20
5046072.699999999
 10
289296.5999999996
 20
5046052.699999999
 10
289282.5999999996
 20
5046043.0
 10
289270.0999999996
 20
5046061.199999999
 10
289266.9000000004
 20
5046061.800000001
 10
289255.0999999996
 20
5046053.699999999
 10
289255.4000000004
 20
5046053.199999999
 10
289243.0
 20
5046044.6
 10
289242.5999999996
 20
5046045.1
 10
289230.5999999996
 20
5046036.9
 10
289230.0
 20
5046033.699999999
 10
289242.5
 20
5046015.6
 10
289228.4000000004
 20
5046006.0
 10
289216.7999999998
 20
5046022.800000001
 10
289214.5
 20
5046026.199999999
 10
289213.5999999996
 20
5046025.6
 10
289187.5
 20
5046008.0
 10
289187.5999999996
 20
5046007.9
 10
289185.0999999996
 20
5046006.4
 10
289184.7999999998
 20
5046006.9
 10
289175.2999999998
 20
5046020.800000001
 10
289177.2999999998
 20
5046022.199999999
 10
289177.0999999996
 20
5046022.5
 10
289184.9000000004
 20
5046027.800000001
 10
289203.5999999996
 20
5046040.699999999
 10
289203.0999999996
 20
5046041.5
 10
289216.9000000004
 20
5046051.0
 10
289217.9000000004
 20
5046051.6
 10
289218.2999999998
 20
5046051.1
 10
289224.3838
 20
5046055.287599999
 10
289216.9000000004
 20
5046066.300000001
 10
289212.5999999996
 20
5046072.699999999
 10
289209.5
 20
5046070.699999999
 10
289207.0
 20
5046074.800000001
 10
289209.9000000004
 20
5046076.699999999
 10
289203.5999999996
 20
5046085.9
 10
289212.0999999996
 20
5046091.699999999
 10
289217.0
 20
5046084.6
 10
289220.0
 20
5046080.0
 10
289224.2000000002
 20
5046082.800000001
 10
289229.7000000002
 20
5046074.800000001
 10
289222.2000000002
 20
5046069.6
 10
289222.7000000002
 20
5046068.5
 10
289219.2999999998
 20
5046066.199999999
 10
289226.0459000003
 20
5046056.431500001
 10
289256.2999999998
 20
5046077.199999999
 10
289256.9000000004
 20
5046080.199999999
 10
289240.9000000004
 20
5046103.6
  0
LWPOLYLINE
  5
202
330
1F
100
AcDbEntity
  8
BAT_PATRIMONIAL_L2000_PG
100
AcDbPolyline
 90
       10
 70
     1
 43
0.0
 10
290365.5
 20
5054200.699999999
 10
290359.9000000004
 20
5054210.300000001
 10
290368.5
 20
5054215.300000001
 10
290367.2999999998
 20
5054217.4
 10
290372.5999999996
 20
5054220.5
 10
290373.7999999998
 20
5054218.5
 10
290374.2999999998
 20
5054218.800000001
 10
290378.2999999998
 20
5054211.800000001
 10
290373.4000000004
 20
5054208.9
 10
290374.9000000004
 20
5054206.199999999
  0
LWPOLYLINE
  5
203
330
1F
100
AcDbEntity
  8
BAT_PATRIMONIAL_L2000_PG
100
AcDbPolyline
 90
       10
 70
     1
 43
0.0
 10
288468.2999999998
 20
5045092.699999999
 10
288479.5999999996
 20
5045081.0
 10
288471.5999999996
 20
5045073.4
 10
288470.0999999996
 20
5045074.9
 10
288467.7000000002
 20
5045072.5
 10
288467.0999999996
 20
5045073.1
 10
288463.5
 20
5045069.699999999
 10
288455.5999999996
 20
5045077.9
 10
288461.5999999996
 20
5045083.699999999
 10
288460.2999999998
 20
5045085.0
  0
LWPOLYLINE
  5
204
330
1F
100
AcDbEntity
  8
BAT_PATRIMONIAL_L2000_PG
100
AcDbPolyline
 90
       12
 70
     1
 43
0.0
 10
285013.0999999996
 20
5056225.6
 10
285024.5
 20
5056233.300000001
 10
285028.5
 20
5056227.300000001
 10
285029.7000000002
 20
5056228.199999999
 10
285032.4000000004
 20
5056224.199999999
 10
285033.7000000002
 20
5056222.199999999
 10
285033.4000000004
 20
5056222.0
 10
285032.4000000004
 20
5056221.300000001
 10
285029.0999999996
 20
5056219.1
 10
285032.2000000002
 20
5056214.4
 10
285024.2999999998
 20
5056209.1
 10
285015.5999999996
 20
5056222.0
  0
LWPOLYLINE
  5
205
330
1F
100
AcDbEntity
  8
BAT_PATRIMONIAL_L2000_PG
100
AcDbPolyline
 90
       11
 70
     1
 43
0.0
 10
289555.7999999998
 20
5060000.0
 10
289594.0999999996
 20
5060000.0
 10
289594.7000000002
 20
5059980.4
 10
289591.2000000002
 20
5059980.300000001
 10
289591.0999999996
 20
5059983.199999999
 10
289556.2000000002
 20
5059982.199999999
 10
289556.2000000002
 20
5059982.4
 10
289556.0999999996
 20
5059987.300000001
 10
289553.4000000004
 20
5059987.300000001
 10
289553.2999999998
 20
5059990.800000001
 10
289556.0
 20
5059990.9
  0
LWPOLYLINE
  5
206
330
1F
100
AcDbEntity
  8
BAT_PATRIMONIAL_L2000_PG
100
AcDbPolyline
 90
        8
 70
     1
 43
0.0
 10
289144.2000000002
 20
5045545.4
 10
289134.9000000004
 20
5045537.5
 10
289133.4000000004
 20
5045539.1
 10
289129.7000000002
 20
5045536.0
 10
289125.4000000004
 20
5045541.0
 10
289129.7000000002
 20
5045544.6
 10
289127.7000000002
 20
5045547.0
 10
289136.4000000004
 20
5045554.4
  0
LWPOLYLINE
  5
207
330
1F
100
AcDbEntity
  8
BAT_PATRIMONIAL_L2000_PG
100
AcDbPolyline
 90
       13
 70
     1
 43
0.0
 10
289787.0999999996
 20
5045823.6
 10
289791.7999999998
 20
5045824.4
 10
289792.2999999998
 20
5045821.9
 10
289798.7000000002
 20
5045821.4
 10
289799.7999999998
 20
5045815.5
 10
289803.4000000004
 20
5045816.1
 10
289815.5
 20
5045815.199999999
 10
289814.7000000002
 20
5045804.4
 10
289802.7999999998
 20
5045805.300000001
 10
289802.2000000002
 20
5045808.6
 10
289800.7999999998
 20
5045808.699999999
 10
289801.2000000002
 20
5045806.6
 10
289790.7000000002
 20
5045804.6
  0
LWPOLYLINE
  5
208
330
1F
100
AcDbEntity
  8
BAT_PATRIMONIAL_L2000_PG
100
AcDbPolyline
 90
        4
 70
     1
 43
0.0
 10
299323.4000000004
 20
5061742.0
 10
299320.2999999998
 20
5061753.5
 10
299330.4000000004
 20
5061756.300000001
 10
299334.0
 20
5061745.199999999
  0
LWPOLYLINE
  5
209
330
1F
100
AcDbEntity
  8
BAT_PATRIMONIAL_L2000_PG
100
AcDbPolyline
 90
        8
 70
     1
 43
0.0
 10
287186.7999999998
 20
5059914.4
 10
287176.7999999998
 20
5059912.6
 10
287176.5999999996
 20
5059913.699999999
 10
287171.5
 20
5059912.800000001
 10
287170.2000000002
 20
5059919.4
 10
287175.2000000002
 20
5059920.300000001
 10
287174.4000000004
 20
5059924.5
 10
287184.5
 20
5059926.4
  0
LWPOLYLINE
  5
20A
330
1F
100
AcDbEntity
  8
BAT_PATRIMONIAL_L2000_PG
100
AcDbPolyline
 90
       12
 70
     1
 43
0.0
 10
290496.4000000004
 20
5046094.6
 10
290493.7999999998
 20
5046093.1
 10
290494.7000000002
 20
5046091.6
 10
290490.0999999996
 20
5046089.0
 10
290489.2999999998
 20
5046090.5
 10
290486.9000000004
 20
5046089.1
 10
290481.5
 20
5046098.4
 10
290487.0
 20
5046101.6
 10
290486.4000000004
 20
5046102.699999999
 10
290489.2000000002
 20
5046104.300000001
 10
290489.7999999998
 20
5046103.199999999
 10
290491.0
 20
5046103.9
  0
LWPOLYLINE
  5
20B
330
1F
100
AcDbEntity
  8
BAT_PATRIMONIAL_L2000_PG
100
AcDbPolyline
 90
        6
 70
     1
 43
0.0
 10
287905.5999999996
 20
5044576.9
 10
287915.2999999998
 20
5044583.699999999
 10
287925.0999999996
 20
5044570.199999999
 10
287918.2000000002
 20
5044565.1
 10
287916.2000000002
 20
5044567.800000001
 10
287913.7000000002
 20
5044565.9
  0
LWPOLYLINE
  5
20C
330
1F
100
AcDbEntity
  8
BAT_PATRIMONIAL_L2000_PG
100
AcDbPolyline
 90
        4
 70
     1
 43
0.0
 10
289339.7237
 20
5045745.093800001
 10
289346.3236999996
 20
5045749.593800001
 10
289353.6237000003
 20
5045739.093800001
 10
289347.0236999998
 20
5045734.593800001
  0
LWPOLYLINE
  5
20D
330
1F
100
AcDbEntity
  8
BAT_PATRIMONIAL_L2000_PG
100
AcDbPolyline
 90
        8
 70
     1
 43
0.0
 10
287086.9000000004
 20
5044116.699999999
 10
287087.5
 20
5044116.0
 10
287089.7000000002
 20
5044117.4
 10
287091.5999999996
 20
5044114.4
 10
287089.5
 20
5044113.0
 10
287092.0999999996
 20
5044109.199999999
 10
287085.4000000004
 20
5044104.800000001
 10
287080.4000000004
 20
5044112.4
  0
LWPOLYLINE
  5
20E
330
1F
100
AcDbEntity
  8
BAT_PATRIMONIAL_L2000_PG
100
AcDbPolyline
 90
        4
 70
     1
 43
0.0
 10
280682.4754999997
 20
5050951.8334
 10
280686.4057999998
 20
5050942.8992
 10
280669.5943999998
 20
5050935.9286
 10
280666.4241000004
 20
5050944.6436
  0
LWPOLYLINE
  5
20F
330
1F
100
AcDbEntity
  8
BAT_PATRIMONIAL_L2000_PG
100
AcDbPolyline
 90
        4
 70
     1
 43
0.0
 10
291247.7999999998
 20
5048124.300000001
 10
291256.5
 20
5048119.0
 10
291250.0999999996
 20
5048108.300000001
 10
291241.2999999998
 20
5048113.6
  0
LWPOLYLINE
  5
210
330
1F
100
AcDbEntity
  8
BAT_PATRIMONIAL_L2000_PG
100
AcDbPolyline
 90
        8
 70
     1
 43
0.0
 10
285131.0999999996
 20
5045617.300000001
 10
285134.0
 20
5045619.6
 10
285132.0
 20
5045622.0
 10
285137.0
 20
5045626.0
 10
285139.0
 20
5045623.5
 10
285139.2999999998
 20
5045623.699999999
 10
285145.2999999998
 20
5045616.0
 10
285137.2000000002
 20
5045609.6
  0
LWPOLYLINE
  5
211
330
1F
100
AcDbEntity
  8
BAT_PATRIMONIAL_L2000_PG
100
AcDbPolyline
 90
       12
 70
     1
 43
0.0
 10
280627.7000000002
 20
5042264.300000001
 10
280624.2999999998
 20
5042265.5
 10
280623.7999999998
 20
5042264.0
 10
280620.2000000002
 20
5042265.300000001
 10
280620.7999999998
 20
5042266.800000001
 10
280619.5999999996
 20
5042267.300000001
 10
280622.5
 20
5042275.6
 10
280622.9000000004
 20
5042275.4
 10
280623.4000000004
 20
5042276.9
 10
280632.9000000004
 20
5042273.5
 10
280629.0999999996
 20
5042262.800000001
 10
280627.4000000004
 20
5042263.4
  0
LWPOLYLINE
  5
212
330
1F
100
AcDbEntity
  8
BAT_PATRIMONIAL_L2000_PG
100
AcDbPolyline
 90
       18
 70
     1
 43
0.0
 10
290182.2999999998
 20
5054322.699999999
 10
290175.9000000004
 20
5054331.0
 10
290181.0999999996
 20
5054335.0
 10
290180.0
 20
5054336.4
 10
290181.0999999996
 20
5054337.300000001
 10
290180.0
 20
5054338.699999999
 10
290183.4000000004
 20
5054341.300000001
 10
290185.5
 20
5054338.9
 10
290186.7000000002
 20
5054339.9
 10
290191.7000000002
 20
5054333.4
 10
290189.7000000002
 20
5054331.699999999
 10
290190.0999999996
 20
5054331.199999999
 10
290190.4000000004
 20
5054330.6
 10
290190.5
 20
5054330.1
 10
290190.5
 20
5054329.699999999
 10
290190.2999999998
 20
5054329.300000001
 10
290190.0
 20
5054328.9
 10
290189.2999999998
 20
5054328.300000001
  0
LWPOLYLINE
  5
213
330
1F
100
AcDbEntity
  8
BAT_PATRIMONIAL_L2000_PG
100
AcDbPolyline
 90
        8
 70
     1
 43
0.0
 10
293903.5999999996
 20
5053914.0
 10
293905.5
 20
5053912.5
 10
293903.2000000002
 20
5053909.6
 10
293896.9000000004
 20
5053901.6
 10
293888.5
 20
5053908.199999999
 10
293889.7000000002
 20
5053909.6
 10
293893.0999999996
 20
5053914.0
 10
293897.0
 20
5053919.1
  0
LWPOLYLINE
  5
214
330
1F
100
AcDbEntity
  8
BAT_PATRIMONIAL_L2000_PG
100
AcDbPolyline
 90
        6
 70
     1
 43
0.0
 10
284756.0
 20
5055888.4
 10
284747.5999999996
 20
5055896.5
 10
284752.0
 20
5055901.1
 10
284748.0999999996
 20
5055904.9
 10
284751.5999999996
 20
5055908.6
 10
284763.9000000004
 20
5055896.699999999
  0
LWPOLYLINE
  5
215
330
1F
100
AcDbEntity
  8
BAT_PATRIMONIAL_L2000_PG
100
AcDbPolyline
 90
        4
 70
     1
 43
0.0
 10
278150.7999999998
 20
5045097.300000001
 10
278143.5
 20
5045110.199999999
 10
278154.2000000002
 20
5045116.199999999
 10
278161.5
 20
5045103.300000001
  0
LWPOLYLINE
  5
216
330
1F
100
AcDbEntity
  8
BAT_PATRIMONIAL_L2000_PG
100
AcDbPolyline
 90
        8
 70
     1
 43
0.0
 10
279272.2000000002
 20
5048604.699999999
 10
279264.2999999998
 20
5048611.1
 10
279270.5999999996
 20
5048619.1
 10
279271.5
 20
5048618.4
 10
279272.9000000004
 20
5048620.1
 10
279278.9000000004
 20
5048615.300000001
 10
279277.2000000002
 20
5048613.300000001
 10
279278.2999999998
 20
5048612.4
  0
LWPOLYLINE
  5
217
330
1F
100
AcDbEntity
  8
BAT_PATRIMONIAL_L2000_PG
100
AcDbPolyline
 90
        6
 70
     1
 43
0.0
 10
275548.7000000002
 20
5045129.199999999
 10
275555.5999999996
 20
5045134.4
 10
275563.0
 20
5045124.800000001
 10
275554.7999999998
 20
5045118.5
 10
275548.7000000002
 20
5045126.300000001
 10
275547.2999999998
 20
5045128.1
  0
LWPOLYLINE
  5
218
330
1F
100
AcDbEntity
  8
BAT_PATRIMONIAL_L2000_PG
100
AcDbPolyline
 90
        6
 70
     1
 43
0.0
 10
286500.0
 20
5058852.800000001
 10
286504.2000000002
 20
5058855.1
 10
286511.5
 20
5058841.9
 10
286502.2000000002
 20
5058836.800000001
 10
286500.0
 20
5058840.800000001
 10
286495.0
 20
5058850.0
  0
LWPOLYLINE
  5
219
330
1F
100
AcDbEntity
  8
BAT_PATRIMONIAL_L2000_PG
100
AcDbPolyline
 90
        6
 70
     1
 43
0.0
 10
286919.9000000004
 20
5043902.699999999
 10
286914.9000000004
 20
5043910.0
 10
286925.2999999998
 20
5043917.199999999
 10
286925.7000000002
 20
5043916.699999999
 10
286926.7000000002
 20
5043917.300000001
 10
286931.2999999998
 20
5043910.6
  0
LWPOLYLINE
  5
21A
330
1F
100
AcDbEntity
  8
BAT_PATRIMONIAL_L2000_PG
100
AcDbPolyline
 90
        6
 70
     1
 43
0.0
 10
291145.7999999998
 20
5047464.800000001
 10
291158.4000000004
 20
5047456.6
 10
291153.0
 20
5047448.300000001
 10
291143.5
 20
5047454.4
 10
291145.2999999998
 20
5047457.199999999
 10
291142.2000000002
 20
5047459.199999999
  0
LWPOLYLINE
  5
21B
330
1F
100
AcDbEntity
  8
BAT_PATRIMONIAL_L2000_PG
100
AcDbPolyline
 90
       11
 70
     1
 43
0.0
 10
277512.0999999996
 20
5042634.9
 10
277510.2000000002
 20
5042642.800000001
 10
277517.0999999996
 20
5042644.4
 10
277518.7999999998
 20
5042637.5
 10
277522.5999999996
 20
5042638.5
 10
277525.2999999998
 20
5042627.199999999
 10
277521.7999999998
 20
5042626.4
 10
277521.4000000004
 20
5042627.9
 10
277518.0999999996
 20
5042627.1
 10
277517.9000000004
 20
5042628.0
 10
277514.0
 20
5042627.1
  0
LWPOLYLINE
  5
21C
330
1F
100
AcDbEntity
  8
BAT_PATRIMONIAL_L2000_PG
100
AcDbPolyline
 90
       10
 70
     1
 43
0.0
 10
288943.0999999996
 20
5059982.199999999
 10
288943.9000000004
 20
5059975.699999999
 10
288944.9000000004
 20
5059975.9
 10
288945.4000000004
 20
5059971.699999999
 10
288944.2000000002
 20
5059971.6
 10
288944.5
 20
5059969.300000001
 10
288932.9000000004
 20
5059967.9
 10
288931.0999999996
 20
5059982.5
 10
288935.2000000002
 20
5059983.0
 10
288935.4000000004
 20
5059981.199999999
  0
LWPOLYLINE
  5
21D
330
1F
100
AcDbEntity
  8
BAT_PATRIMONIAL_L2000_PG
100
AcDbPolyline
 90
       12
 70
     1
 43
0.0
 10
290022.0999999996
 20
5060352.800000001
 10
290022.7999999998
 20
5060350.699999999
 10
290025.4000000004
 20
5060351.5
 10
290026.5
 20
5060346.6
 10
290024.0
 20
5060345.800000001
 10
290024.5
 20
5060344.199999999
 10
290014.7999999998
 20
5060341.1
 10
290014.0999999996
 20
5060343.6
 10
290009.0999999996
 20
5060342.5
 10
290006.7999999998
 20
5060349.9
 10
290012.2000000002
 20
5060351.6
 10
290012.7999999998
 20
5060349.800000001
  0
LWPOLYLINE
  5
21E
330
1F
100
AcDbEntity
  8
BAT_PATRIMONIAL_L2000_PG
100
AcDbPolyline
 90
        8
 70
     1
 43
0.0
 10
288530.7363
 20
5048966.162799999
 10
288524.5844999999
 20
5048971.4637
 10
288523.5537999999
 20
5048970.2674
 10
288520.3307999996
 20
5048973.044600001
 10
288528.3333999999
 20
5048982.331800001
 10
288531.7638999997
 20
5048979.375800001
 10
288531.0782000003
 20
5048978.58
 10
288537.0224000001
 20
5048973.458000001
  0
LWPOLYLINE
  5
21F
330
1F
100
AcDbEntity
  8
BAT_PATRIMONIAL_L2000_PG
100
AcDbPolyline
 90
        4
 70
     1
 43
0.0
 10
298701.5999999996
 20
5058210.800000001
 10
298692.2000000002
 20
5058206.5
 10
298687.5999999996
 20
5058216.0
 10
298696.9000000004
 20
5058220.699999999
  0
LWPOLYLINE
  5
220
330
1F
100
AcDbEntity
  8
BAT_PATRIMONIAL_L2000_PG
100
AcDbPolyline
 90
        8
 70
     1
 43
0.0
 10
283437.9108999996
 20
5054186.6535
 10
283430.2193999998
 20
5054192.41
 10
283435.8552999999
 20
5054199.940400001
 10
283437.5839
 20
5054198.6467
 10
283441.2171
 20
5054203.5012
 10
283445.6657999996
 20
5054200.171700001
 10
283448.4110000003
 20
5054203.8398
 10
283449.9252000004
 20
5054202.706499999
  0
LWPOLYLINE
  5
221
330
1F
100
AcDbEntity
  8
BAT_PATRIMONIAL_L2000_PG
100
AcDbPolyline
 90
       14
 70
     1
 43
0.0
 10
276833.2999999998
 20
5047069.1
 10
276840.0
 20
5047063.199999999
 10
276839.5999999996
 20
5047062.699999999
 10
276844.2999999998
 20
5047058.5
 10
276840.5999999996
 20
5047054.300000001
 10
276838.7000000002
 20
5047056.0
 10
276836.4000000004
 20
5047053.4
 10
276833.5
 20
5047055.9
 10
276832.7999999998
 20
5047055.199999999
 10
276826.0999999996
 20
5047061.1
 10
276828.2000000002
 20
5047063.6
 10
276827.0
 20
5047064.699999999
 10
276830.0
 20
5047068.199999999
 10
276831.4000000004
 20
5047067.0
  0
LWPOLYLINE
  5
222
330
1F
100
AcDbEntity
  8
BAT_PATRIMONIAL_L2000_PG
100
AcDbPolyline
 90
       10
 70
     1
 43
0.0
 10
284155.5999999996
 20
5042733.800000001
 10
284165.9000000004
 20
5042719.0
 10
284162.2000000002
 20
5042716.4
 10
284164.4000000004
 20
5042713.300000001
 10
284156.5
 20
5042707.800000001
 10
284151.4000000004
 20
5042715.199999999
 10
284157.2000000002
 20
5042719.199999999
 10
284153.2999999998
 20
5042724.9
 10
284154.0999999996
 20
5042725.5
 10
284150.7000000002
 20
5042730.4
  0
LWPOLYLINE
  5
223
330
1F
100
AcDbEntity
  8
BAT_PATRIMONIAL_L2000_PG
100
AcDbPolyline
 90
       52
 70
     1
 43
0.0
 10
291192.4000000004
 20
5046988.0
 10
291204.0999999996
 20
5046979.6
 10
291199.7000000002
 20
5046973.5
 10
291196.5
 20
5046969.1
 10
291186.5999999996
 20
5046955.4
 10
291188.7000000002
 20
5046953.9
 10
291171.2000000002
 20
5046929.800000001
 10
291170.7000000002
 20
5046930.1
 10
291169.2000000002
 20
5046931.199999999
 10
291151.7999999998
 20
5046907.199999999
 10
291140.0
 20
5046915.699999999
 10
291138.7000000002
 20
5046914.0
 10
291135.0999999996
 20
5046908.9
 10
291137.5999999996
 20
5046907.1
 10
291130.0
 20
5046896.6
 10
291108.0
 20
5046912.5
 10
291108.7999999998
 20
5046913.5
 10
291106.7000000002
 20
5046915.1
 10
291112.9000000004
 20
5046923.699999999
 10
291115.0
 20
5046922.1
 10
291115.7000000002
 20
5046923.1
 10
291130.0999999996
 20
5046912.699999999
 10
291131.5
 20
5046914.6
 10
291130.0999999996
 20
5046915.6
 10
291138.7999999998
 20
5046927.5
 10
291140.0
 20
5046929.199999999
 10
291146.5
 20
5046924.6
 10
291153.9000000004
 20
5046934.9
 10
291148.9000000004
 20
5046938.5
 10
291148.2000000002
 20
5046937.5
 10
291143.5999999996
 20
5046940.9
 10
291141.0
 20
5046937.4
 10
291138.7999999998
 20
5046939.0
 10
291135.5
 20
5046941.4
 10
291138.0999999996
 20
5046945.0
 10
291137.0999999996
 20
5046945.6
 10
291138.7999999998
 20
5046947.9
 10
291141.5
 20
5046951.699999999
 10
291139.0999999996
 20
5046953.4
 10
291142.5
 20
5046958.1
 10
291159.4000000004
 20
5046945.9
 10
291157.0999999996
 20
5046942.699999999
 10
291158.7000000002
 20
5046941.5
 10
291163.2999999998
 20
5046947.800000001
 10
291140.5999999996
 20
5046964.199999999
 10
291144.2000000002
 20
5046969.199999999
 10
291150.2999999998
 20
5046977.699999999
 10
291162.0999999996
 20
5046969.199999999
 10
291170.7999999998
 20
5046962.9
 10
291173.0
 20
5046961.300000001
 10
291178.7000000002
 20
5046969.199999999
 10
291181.9000000004
 20
5046973.5
  0
LWPOLYLINE
  5
224
330
1F
100
AcDbEntity
  8
BAT_PATRIMONIAL_L2000_PG
100
AcDbPolyline
 90
       12
 70
     1
 43
0.0
 10
284783.5999999996
 20
5045528.6
 10
284780.5
 20
5045535.6
 10
284789.2000000002
 20
5045539.5
 10
284787.9000000004
 20
5045542.5
 10
284791.5999999996
 20
5045544.1
 10
284792.0
 20
5045543.199999999
 10
284796.5
 20
5045545.199999999
 10
284798.5999999996
 20
5045540.5
 10
284794.5
 20
5045538.699999999
 10
284794.5999999996
 20
5045538.5
 10
284790.9000000004
 20
5045536.800000001
 10
284792.7999999998
 20
5045532.699999999
  0
LWPOLYLINE
  5
225
330
1F
100
AcDbEntity
  8
BAT_PATRIMONIAL_L2000_PG
100
AcDbPolyline
 90
        8
 70
     1
 43
0.0
 10
285244.5999999996
 20
5057986.9
 10
285257.5999999996
 20
5057989.6
 10
285260.2999999998
 20
5057977.1
 10
285247.2000000002
 20
5057974.300000001
 10
285246.2999999998
 20
5057978.6
 10
285240.5
 20
5057977.300000001
 10
285239.0999999996
 20
5057984.199999999
 10
285244.9000000004
 20
5057985.4
  0
LWPOLYLINE
  5
226
330
1F
100
AcDbEntity
  8
BAT_PATRIMONIAL_L2000_PG
100
AcDbPolyline
 90
        8
 70
     1
 43
0.0
 10
288557.0
 20
5045231.800000001
 10
288542.9000000004
 20
5045252.199999999
 10
288542.2999999998
 20
5045251.800000001
 10
288539.7999999998
 20
5045255.4
 10
288540.4000000004
 20
5045255.800000001
 10
288529.5999999996
 20
5045271.300000001
 10
288544.7999999998
 20
5045281.9
 10
288572.2000000002
 20
5045242.4
  0
LWPOLYLINE
  5
227
330
1F
100
AcDbEntity
  8
BAT_PATRIMONIAL_L2000_PG
100
AcDbPolyline
 90
       18
 70
     1
 43
0.0
 10
284950.5999999996
 20
5043333.9
 10
284956.5
 20
5043333.6
 10
284956.2000000002
 20
5043327.1
 10
284959.7000000002
 20
5043327.0
 10
284959.5
 20
5043320.800000001
 10
284955.4000000004
 20
5043321.0
 10
284955.2999999998
 20
5043318.6
 10
284954.2000000002
 20
5043317.6
 10
284950.2000000002
 20
5043317.800000001
 10
284949.5999999996
 20
5043317.199999999
 10
284948.9000000004
 20
5043317.199999999
 10
284948.7000000002
 20
5043317.0
 10
284944.7999999998
 20
5043318.0
 10
284943.9000000004
 20
5043319.0
 10
284944.2000000002
 20
5043327.6
 10
284946.5999999996
 20
5043327.6
 10
284946.5999999996
 20
5043328.0
 10
284950.4000000004
 20
5043327.9
  0
LWPOLYLINE
  5
228
330
1F
100
AcDbEntity
  8
BAT_PATRIMONIAL_L2000_PG
100
AcDbPolyline
 90
       17
 70
     1
 43
0.0
 10
284831.7000000002
 20
5054425.6
 10
284831.7000000002
 20
5054425.699999999
 10
284828.4000000004
 20
5054437.0
 10
284830.0999999996
 20
5054437.5
 10
284828.7999999998
 20
5054441.800000001
 10
284829.7999999998
 20
5054442.1
 10
284828.5999999996
 20
5054446.199999999
 10
284834.2999999998
 20
5054447.800000001
 10
284835.5
 20
5054443.9
 10
284836.2999999998
 20
5054444.1
 10
284837.5
 20
5054439.9
 10
284839.2999999998
 20
5054440.5
 10
284839.5
 20
5054439.800000001
 10
284841.2999999998
 20
5054440.4
 10
284842.2000000002
 20
5054437.0
 10
284840.2000000002
 20
5054436.5
 10
284842.5
 20
5054428.800000001
  0
LWPOLYLINE
  5
229
330
1F
100
AcDbEntity
  8
BAT_PATRIMONIAL_L2000_PG
100
AcDbPolyline
 90
       11
 70
     1
 43
0.0
 10
283657.7999999998
 20
5049942.199999999
 10
283650.4000000004
 20
5049946.4
 10
283654.3142999997
 20
5049953.4278
 10
283648.3194000004
 20
5049957.297
 10
283649.9949000003
 20
5049960.288899999
 10
283658.8510999996
 20
5049975.3683
 10
283663.1595000001
 20
5049972.914799999
 10
283665.2538000001
 20
5049976.4453
 10
283673.4517000001
 20
5049971.658199999
 10
283661.2999999998
 20
5049951.6
 10
283662.7000000002
 20
5049950.800000001
  0
LWPOLYLINE
  5
22A
330
1F
100
AcDbEntity
  8
BAT_PATRIMONIAL_L2000_PG
100
AcDbPolyline
 90
       16
 70
     1
 43
0.0
 10
290162.4426999995
 20
5045894.034
 10
290165.2427000003
 20
5045896.034
 10
290166.4426999995
 20
5045894.434
 10
290166.6426999997
 20
5045894.634
 10
290171.7427000003
 20
5045887.534
 10
290168.1426999997
 20
5045884.934
 10
290168.5427000001
 20
5045884.334000001
 10
290162.4426999995
 20
5045879.934
 10
290157.0427000001
 20
5045876.134
 10
290156.6426999997
 20
5045876.733999999
 10
290153.3426999999
 20
5045874.334000001
 10
290148.2427000003
 20
5045881.434
 10
290151.5427000001
 20
5045883.834000001
 10
290151.0427000001
 20
5045884.534
 10
290162.4426999995
 20
5045892.733999999
 10
290161.8426999999
 20
5045893.634
  0
LWPOLYLINE
  5
22B
330
1F
100
AcDbEntity
  8
BAT_PATRIMONIAL_L2000_PG
100
AcDbPolyline
 90
        6
 70
     1
 43
0.0
 10
284465.0999999996
 20
5045602.6
 10
284460.7999999998
 20
5045599.5
 10
284458.5
 20
5045602.6
 10
284456.5999999996
 20
5045605.1
 10
284462.2000000002
 20
5045609.5
 10
284466.5999999996
 20
5045603.800000001
  0
LWPOLYLINE
  5
22C
330
1F
100
AcDbEntity
  8
BAT_PATRIMONIAL_L2000_PG
100
AcDbPolyline
 90
        4
 70
     1
 43
0.0
 10
290384.6683999998
 20
5061461.460999999
 10
290394.1140000001
 20
5061465.350400001
 10
290398.0510999998
 20
5061455.789000001
 10
290388.6053999998
 20
5061451.899599999
  0
LWPOLYLINE
  5
22D
330
1F
100
AcDbEntity
  8
BAT_PATRIMONIAL_L2000_PG
100
AcDbPolyline
 90
       11
 70
     1
 43
0.0
 10
288128.7000000002
 20
5044707.4
 10
288123.0999999996
 20
5044703.6
 10
288120.0999999996
 20
5044707.699999999
 10
288119.2999999998
 20
5044708.699999999
 10
288118.7999999998
 20
5044708.4
 10
288119.2999999998
 20
5044707.699999999
 10
288119.0999999996
 20
5044705.9
 10
288116.7000000002
 20
5044704.1
 10
288114.5999999996
 20
5044704.4
 10
288107.7999999998
 20
5044713.1
 10
288118.7999999998
 20
5044721.4
  0
LWPOLYLINE
  5
22E
330
1F
100
AcDbEntity
  8
BAT_PATRIMONIAL_L2000_PG
100
AcDbPolyline
 90
        4
 70
     1
 43
0.0
 10
288376.5999999996
 20
5045128.6
 10
288408.9000000004
 20
5045150.4
 10
288418.7999999998
 20
5045135.800000001
 10
288386.5
 20
5045114.0
  0
LWPOLYLINE
  5
22F
330
1F
100
AcDbEntity
  8
BAT_PATRIMONIAL_L2000_PG
100
AcDbPolyline
 90
       12
 70
     1
 43
0.0
 10
279126.0
 20
5042389.5
 10
279133.4000000004
 20
5042391.300000001
 10
279134.2999999998
 20
5042387.800000001
 10
279141.0999999996
 20
5042389.6
 10
279143.4000000004
 20
5042380.699999999
 10
279135.0999999996
 20
5042378.6
 10
279134.5
 20
5042381.0
 10
279130.9000000004
 20
5042380.1
 10
279130.2999999998
 20
5042382.6
 10
279128.7999999998
 20
5042382.199999999
 10
279127.9000000004
 20
5042385.699999999
 10
279127.0
 20
5042385.5
  0
LWPOLYLINE
  5
230
330
1F
100
AcDbEntity
  8
BAT_PATRIMONIAL_L2000_PG
100
AcDbPolyline
 90
       16
 70
     1
 43
0.0
 10
286140.4000000004
 20
5043939.300000001
 10
286147.2000000002
 20
5043941.5
 10
286146.7000000002
 20
5043943.0
 10
286150.0
 20
5043944.1
 10
286150.5999999996
 20
5043942.300000001
 10
286157.2000000002
 20
5043944.4
 10
286164.7999999998
 20
5043920.9
 10
286169.4000000004
 20
5043922.4
 10
286173.5
 20
5043909.6
 10
286173.7999999998
 20
5043909.699999999
 10
286174.5
 20
5043907.6
 10
286153.7000000002
 20
5043900.800000001
 10
286152.9000000004
 20
5043903.1
 10
286153.5
 20
5043903.300000001
 10
286149.5
 20
5043915.5
 10
286148.2000000002
 20
5043915.1
  0
LWPOLYLINE
  5
231
330
1F
100
AcDbEntity
  8
BAT_PATRIMONIAL_L2000_PG
100
AcDbPolyline
 90
       12
 70
     1
 43
0.0
 10
286361.4000000004
 20
5050388.199999999
 10
286354.2999999998
 20
5050398.9
 10
286363.0999999996
 20
5050404.6
 10
286362.4000000004
 20
5050405.699999999
 10
286368.2000000002
 20
5050409.5
 10
286373.0999999996
 20
5050402.0
 10
286369.2000000002
 20
5050399.5
 10
286370.7999999998
 20
5050397.0
 10
286371.2999999998
 20
5050396.199999999
 10
286371.2000000002
 20
5050395.4
 10
286370.5999999996
 20
5050394.300000001
 10
286370.0999999996
 20
5050393.9
  0
LWPOLYLINE
  5
232
330
1F
100
AcDbEntity
  8
BAT_PATRIMONIAL_L2000_PG
100
AcDbPolyline
 90
        8
 70
     1
 43
0.0
 10
296648.5999999996
 20
5060893.4
 10
296651.7999999998
 20
5060904.0
 10
296663.2999999998
 20
5060900.6
 10
296661.7999999998
 20
5060895.6
 10
296665.9000000004
 20
5060894.300000001
 10
296664.4000000004
 20
5060889.300000001
 10
296660.2000000002
 20
5060890.6
 10
296660.0999999996
 20
5060890.0
  0
LWPOLYLINE
  5
233
330
1F
100
AcDbEntity
  8
BAT_PATRIMONIAL_L2000_PG
100
AcDbPolyline
 90
        8
 70
     1
 43
0.0
 10
285811.9195999997
 20
5043755.8991
 10
285814.1596999997
 20
5043752.116800001
 10
285814.6793
 20
5043752.4245
 10
285818.8062000005
 20
5043745.456599999
 10
285808.7426000005
 20
5043739.496200001
 10
285801.6734999996
 20
5043751.431600001
 10
285808.3751999997
 20
5043755.400800001
 10
285809.0771000003
 20
5043754.215600001
  0
LWPOLYLINE
  5
234
330
1F
100
AcDbEntity
  8
BAT_PATRIMONIAL_L2000_PG
100
AcDbPolyline
 90
       12
 70
     1
 43
0.0
 10
286384.0999999996
 20
5058738.5
 10
286375.2999999998
 20
5058732.9
 10
286377.0999999996
 20
5058730.1
 10
286368.7999999998
 20
5058724.699999999
 10
286363.0
 20
5058733.699999999
 10
286364.5
 20
5058734.699999999
 10
286363.0
 20
5058736.9
 10
286368.2999999998
 20
5058740.300000001
 10
286370.0
 20
5058737.699999999
 10
286373.0999999996
 20
5058739.699999999
 10
286370.7000000002
 20
5058743.5
 10
286378.0
 20
5058748.1
  0
LWPOLYLINE
  5
235
330
1F
100
AcDbEntity
  8
BAT_PATRIMONIAL_L2000_PG
100
AcDbPolyline
 90
        4
 70
     1
 43
0.0
 10
292214.8967000004
 20
5061240.5108
 10
292243.3658999996
 20
5061234.160700001
 10
292240.1372999996
 20
5061219.685699999
 10
292211.6679999996
 20
5061226.035700001
  0
LWPOLYLINE
  5
236
330
1F
100
AcDbEntity
  8
BAT_PATRIMONIAL_L2000_PG
100
AcDbPolyline
 90
        8
 70
     1
 43
0.0
 10
286345.9000000004
 20
5044019.4
 10
286351.4000000004
 20
5044012.699999999
 10
286340.9000000004
 20
5044004.0
 10
286340.7000000002
 20
5044004.199999999
 10
286337.7999999998
 20
5044001.9
 10
286331.0999999996
 20
5044010.0
 10
286335.5999999996
 20
5044013.800000001
 10
286337.0999999996
 20
5044012.0
  0
LWPOLYLINE
  5
237
330
1F
100
AcDbEntity
  8
BAT_PATRIMONIAL_L2000_PG
100
AcDbPolyline
 90
      100
 70
     1
 43
0.0
 10
293350.9000000004
 20
5053184.550000001
 10
293408.6333999997
 20
5053109.7311
 10
293413.5
 20
5053113.300000001
 10
293423.5
 20
5053100.0
 10
293420.2000000002
 20
5053097.6
 10
293420.5
 20
5053097.1
 10
293419.1529999999
 20
5053096.0984
 10
293478.4891999997
 20
5053016.9189
 10
293495.4754999997
 20
5052993.318
 10
293495.9987000003
 20
5052993.404899999
 10
293496.5290999999
 20
5052993.4002
 10
293497.0506999996
 20
5052993.304099999
 10
293497.5480000004
 20
5052993.1195
 10
293498.0059000002
 20
5052992.8518
 10
293498.4107999997
 20
5052992.509199999
 10
293498.7505000001
 20
5052992.1019
 10
293499.0148999998
 20
5052991.642100001
 10
293499.1958999997
 20
5052991.1435
 10
293499.2883000001
 20
5052990.621200001
 10
293499.2892000005
 20
5052990.0908
 10
293499.1985999998
 20
5052989.5682
 10
293499.0191000002
 20
5052989.0691
 10
293498.7562999995
 20
5052988.6084
 10
293498.3574000001
 20
5052988.2818
 10
293497.9117000001
 20
5052988.022600001
 10
293497.4305999996
 20
5052987.837300001
 10
293496.9261999996
 20
5052987.730599999
 10
293496.4112999998
 20
5052987.7052
 10
293495.8987999996
 20
5052987.7618
 10
293475.7904000003
 20
5052971.728
 10
293432.0811999999
 20
5052939.713300001
 10
293337.8364000004
 20
5052868.8049
 10
293328.8712999998
 20
5052862.059599999
 10
293328.8250000002
 20
5052861.6044
 10
293328.7012999998
 20
5052861.163799999
 10
293328.5038999999
 20
5052860.751
 10
293328.2386999996
 20
5052860.3781
 10
293327.9135999996
 20
5052860.0562
 10
293327.5379999997
 20
5052859.7948
 10
293327.1232000003
 20
5052859.601600001
 10
293326.6814999999
 20
5052859.4824
 10
293326.2258000001
 20
5052859.4407
 10
293325.7697000001
 20
5052859.477700001
 10
293325.3267000001
 20
5052859.5923
 10
293324.9099000003
 20
5052859.781099999
 10
293324.5317000002
 20
5052860.0386
 10
293324.2032000003
 20
5052860.357100001
 10
293323.9341000002
 20
5052860.7272
 10
293323.7324000001
 20
5052861.1379
 10
293323.6041999999
 20
5052861.577099999
 10
293323.5531000001
 20
5052862.0318
 10
293323.5806999998
 20
5052862.488600001
 10
293323.6862000003
 20
5052862.933800001
 10
293323.8663999997
 20
5052863.3544
 10
293316.5109999999
 20
5052873.143999999
 10
293280.6333999997
 20
5052919.922499999
 10
293218.9853999997
 20
5053000.6735
 10
293181.9965000004
 20
5053048.774800001
 10
293181.4543000003
 20
5053048.837099999
 10
293180.9303000001
 20
5053048.989600001
 10
293180.4395000003
 20
5053049.2281
 10
293179.9956999999
 20
5053049.5458
 10
293179.6117000002
 20
5053049.933599999
 10
293179.2983999997
 20
5053050.3804
 10
293179.0647
 20
5053050.873600001
 10
293178.9172
 20
5053051.399
 10
293178.8602
 20
5053051.9418
 10
293178.8953999998
 20
5053052.486400001
 10
293179.0215999996
 20
5053053.0174
 10
293179.2352999998
 20
5053053.5195
 10
293179.5303999996
 20
5053053.978599999
 10
293179.8985000001
 20
5053054.3815
 10
293180.3291999996
 20
5053054.716700001
 10
293180.8101000004
 20
5053054.9748
 10
293181.3274999997
 20
5053055.1482
 10
293181.8667000001
 20
5053055.2322
 10
293182.4123999998
 20
5053055.224400001
 10
293182.949
 20
5053055.1248
 10
293227.8754000003
 20
5053089.891100001
 10
293222.6117000002
 20
5053096.6931
 10
293257.2971000001
 20
5053124.445800001
 10
293263.1416999996
 20
5053117.141100001
 10
293265.3351999996
 20
5053118.896199999
 10
293264.7000000002
 20
5053119.699999999
 10
293255.2999999998
 20
5053131.6
 10
293254.7000000002
 20
5053131.1
 10
293227.9000000004
 20
5053165.300000001
 10
293240.0
 20
5053174.800000001
 10
293266.5999999996
 20
5053140.9
 10
293266.2999999998
 20
5053140.6
 10
293273.2000000002
 20
5053131.800000001
 10
293269.0
 20
5053128.4
 10
293271.5999999996
 20
5053125.1
 10
293272.1942999996
 20
5053124.345699999
 10
293345.6809999999
 20
5053183.672499999
 10
293345.2999999998
 20
5053184.199999999
 10
293345.7000000002
 20
5053186.4
 10
293347.7000000002
 20
5053187.800000001
 10
293349.7999999998
 20
5053187.5
 10
293351.0999999996
 20
5053185.699999999
  0
LWPOLYLINE
  5
238
330
1F
100
AcDbEntity
  8
BAT_PATRIMONIAL_L2000_PG
100
AcDbPolyline
 90
        4
 70
     1
 43
0.0
 10
293495.7999999998
 20
5051822.1
 10
293482.7999999998
 20
5051826.5
 10
293485.2000000002
 20
5051833.800000001
 10
293498.2999999998
 20
5051829.4
  0
LWPOLYLINE
  5
239
330
1F
100
AcDbEntity
  8
BAT_PATRIMONIAL_L2000_PG
100
AcDbPolyline
 90
       10
 70
     1
 43
0.0
 10
282846.9000000004
 20
5054064.1
 10
282843.2000000002
 20
5054069.699999999
 10
282853.5999999996
 20
5054076.699999999
 10
282854.9000000004
 20
5054074.699999999
 10
282856.7000000002
 20
5054075.9
 10
282860.9000000004
 20
5054069.699999999
 10
282851.5
 20
5054063.300000001
 10
282851.0999999996
 20
5054063.9
 10
282850.5999999996
 20
5054063.5
 10
282849.2000000002
 20
5054065.699999999
  0
LWPOLYLINE
  5
23A
330
1F
100
AcDbEntity
  8
BAT_PATRIMONIAL_L2000_PG
100
AcDbPolyline
 90
        8
 70
     1
 43
0.0
 10
282862.0
 20
5052374.4
 10
282844.5
 20
5052371.5
 10
282843.2999999998
 20
5052378.9
 10
282849.7000000002
 20
5052380.0
 10
282849.4000000004
 20
5052382.1
 10
282855.4000000004
 20
5052383.1
 10
282855.2000000002
 20
5052384.699999999
 10
282860.2000000002
 20
5052385.5
  0
LWPOLYLINE
  5
23B
330
1F
100
AcDbEntity
  8
BAT_PATRIMONIAL_L2000_PG
100
AcDbPolyline
 90
        7
 70
     1
 43
0.0
 10
293683.2000000002
 20
5053173.800000001
 10
293687.0
 20
5053182.699999999
 10
293694.7000000002
 20
5053179.4
 10
293692.4000000004
 20
5053174.0
 10
293694.4000000004
 20
5053173.1
 10
293692.9000000004
 20
5053169.6
 10
293683.2999999998
 20
5053173.800000001
  0
LWPOLYLINE
  5
23C
330
1F
100
AcDbEntity
  8
BAT_PATRIMONIAL_L2000_PG
100
AcDbPolyline
 90
        8
 70
     1
 43
0.0
 10
291513.4000000004
 20
5055254.4
 10
291524.4000000004
 20
5055262.9
 10
291530.0
 20
5055255.6
 10
291523.4000000004
 20
5055250.5
 10
291524.4000000004
 20
5055249.199999999
 10
291521.5
 20
5055247.0
 10
291520.5999999996
 20
5055248.300000001
 10
291519.0
 20
5055247.1
  0
LWPOLYLINE
  5
23D
330
1F
100
AcDbEntity
  8
BAT_PATRIMONIAL_L2000_PG
100
AcDbPolyline
 90
        4
 70
     1
 43
0.0
 10
286161.7000000002
 20
5053667.300000001
 10
286171.4000000004
 20
5053660.199999999
 10
286164.5
 20
5053650.6
 10
286154.7000000002
 20
5053657.699999999
  0
LWPOLYLINE
  5
23E
330
1F
100
AcDbEntity
  8
BAT_PATRIMONIAL_L2000_PG
100
AcDbPolyline
 90
       36
 70
     1
 43
0.0
 10
290227.5702
 20
5045878.0275
 10
290212.0702
 20
5045867.4275
 10
290209.6701999996
 20
5045870.9275
 10
290209.2702000001
 20
5045870.727499999
 10
290208.3701999998
 20
5045872.0275
 10
290208.6701999996
 20
5045872.227499999
 10
290206.1701999996
 20
5045875.9275
 10
290207.0702
 20
5045876.5275
 10
290206.7702000001
 20
5045876.9275
 10
290209.0702
 20
5045878.5275
 10
290209.2702000001
 20
5045878.327500001
 10
290209.8701999998
 20
5045878.727499999
 10
290209.6701999996
 20
5045879.0275
 10
290210.8701999998
 20
5045879.827500001
 10
290211.0702
 20
5045879.627499999
 10
290212.1701999996
 20
5045880.4275
 10
290211.9702000003
 20
5045880.627499999
 10
290213.2702000001
 20
5045881.5275
 10
290213.4702000003
 20
5045881.327500001
 10
290213.9702000003
 20
5045881.627499999
 10
290213.7702000001
 20
5045881.9275
 10
290214.8701999998
 20
5045882.727499999
 10
290215.0702
 20
5045882.4275
 10
290216.0702
 20
5045883.127499999
 10
290215.8701999998
 20
5045883.4275
 10
290217.2702000001
 20
5045884.327500001
 10
290217.3701999998
 20
5045884.227499999
 10
290218.0702
 20
5045884.627499999
 10
290217.8701999998
 20
5045884.9275
 10
290219.9702000003
 20
5045886.327500001
 10
290220.1701999996
 20
5045886.127499999
 10
290221.2702000001
 20
5045886.827500001
 10
290223.6701999996
 20
5045883.227499999
 10
290224.0702
 20
5045883.5275
 10
290224.9702000003
 20
5045882.227499999
 10
290224.7702000001
 20
5045882.127499999
  0
LWPOLYLINE
  5
23F
330
1F
100
AcDbEntity
  8
BAT_PATRIMONIAL_L2000_PG
100
AcDbPolyline
 90
       36
 70
     1
 43
0.0
 10
290227.5702
 20
5045878.0275
 10
290212.0702
 20
5045867.4275
 10
290209.6701999996
 20
5045870.9275
 10
290209.2702000001
 20
5045870.727499999
 10
290208.3701999998
 20
5045872.0275
 10
290208.6701999996
 20
5045872.227499999
 10
290206.1701999996
 20
5045875.9275
 10
290207.0702
 20
5045876.5275
 10
290206.7702000001
 20
5045876.9275
 10
290209.0702
 20
5045878.5275
 10
290209.2702000001
 20
5045878.327500001
 10
290209.8701999998
 20
5045878.727499999
 10
290209.6701999996
 20
5045879.0275
 10
290210.8701999998
 20
5045879.827500001
 10
290211.0702
 20
5045879.627499999
 10
290212.1701999996
 20
5045880.4275
 10
290211.9702000003
 20
5045880.627499999
 10
290213.2702000001
 20
5045881.5275
 10
290213.4702000003
 20
5045881.327500001
 10
290213.9702000003
 20
5045881.627499999
 10
290213.7702000001
 20
5045881.9275
 10
290214.8701999998
 20
5045882.727499999
 10
290215.0702
 20
5045882.4275
 10
290216.0702
 20
5045883.127499999
 10
290215.8701999998
 20
5045883.4275
 10
290217.2702000001
 20
5045884.327500001
 10
290217.3701999998
 20
5045884.227499999
 10
290218.0702
 20
5045884.627499999
 10
290217.8701999998
 20
5045884.9275
 10
290219.9702000003
 20
5045886.327500001
 10
290220.1701999996
 20
5045886.127499999
 10
290221.2702000001
 20
5045886.827500001
 10
290223.6701999996
 20
5045883.227499999
 10
290224.0702
 20
5045883.5275
 10
290224.9702000003
 20
5045882.227499999
 10
290224.7702000001
 20
5045882.127499999
  0
LWPOLYLINE
  5
240
330
1F
100
AcDbEntity
  8
BAT_PATRIMONIAL_L2000_PG
100
AcDbPolyline
 90
       22
 70
     1
 43
0.0
 10
288121.8881000001
 20
5050040.2907
 10
288108.0777000003
 20
5050058.2235
 10
288116.6536999997
 20
5050064.8279
 10
288114.5235000001
 20
5050067.5941
 10
288100.2314999998
 20
5050056.5877
 10
288096.6231000004
 20
5050061.273
 10
288094.1284999996
 20
5050059.352
 10
288091.2597000003
 20
5050063.077099999
 10
288093.5965
 20
5050064.8769
 10
288089.8195000002
 20
5050069.781500001
 10
288105.5499
 20
5050081.8957
 10
288105.8552999999
 20
5050081.499299999
 10
288109.0399000002
 20
5050083.952
 10
288121.1001000004
 20
5050068.2917
 10
288121.4697000002
 20
5050068.5765
 10
288135.2367000002
 20
5050050.699899999
 10
288134.1007000003
 20
5050049.825099999
 10
288135.9423000002
 20
5050047.433499999
 10
288132.1686000004
 20
5050044.527100001
 10
288132.6189000001
 20
5050043.942299999
 10
288126.4112999998
 20
5050039.161699999
 10
288124.1816999996
 20
5050042.0569
  0
LWPOLYLINE
  5
241
330
1F
100
AcDbEntity
  8
BAT_PATRIMONIAL_L2000_PG
100
AcDbPolyline
 90
       10
 70
     1
 43
0.0
 10
279773.2999999998
 20
5043243.6
 10
279783.2000000002
 20
5043227.800000001
 10
279778.4000000004
 20
5043224.800000001
 10
279780.0999999996
 20
5043222.1
 10
279774.0999999996
 20
5043218.4
 10
279762.2999999998
 20
5043237.300000001
 10
279766.2999999998
 20
5043239.800000001
 10
279765.4000000004
 20
5043241.300000001
 10
279768.7000000002
 20
5043243.300000001
 10
279769.9000000004
 20
5043241.4
  0
LWPOLYLINE
  5
242
330
1F
100
AcDbEntity
  8
BAT_PATRIMONIAL_L2000_PG
100
AcDbPolyline
 90
       14
 70
     1
 43
0.0
 10
284316.7999999998
 20
5045589.300000001
 10
284322.2999999998
 20
5045582.300000001
 10
284327.2999999998
 20
5045586.1
 10
284330.2000000002
 20
5045582.300000001
 10
284335.5831000004
 20
5045575.432399999
 10
284340.5999999996
 20
5045579.6
 10
284341.2999999998
 20
5045578.699999999
 10
284341.5
 20
5045578.800000001
 10
284348.9000000004
 20
5045569.199999999
 10
284335.4000000004
 20
5045558.800000001
 10
284329.0
 20
5045553.9
 10
284321.9000000004
 20
5045563.0
 10
284322.9000000004
 20
5045563.800000001
 10
284308.2999999998
 20
5045582.699999999
  0
LWPOLYLINE
  5
243
330
1F
100
AcDbEntity
  8
BAT_PATRIMONIAL_L2000_PG
100
AcDbPolyline
 90
       12
 70
     1
 43
0.0
 10
293443.2000000002
 20
5052641.699999999
 10
293452.7999999998
 20
5052649.0
 10
293458.0
 20
5052642.199999999
 10
293456.4000000004
 20
5052640.9
 10
293457.2000000002
 20
5052639.9
 10
293453.9000000004
 20
5052637.300000001
 10
293453.0999999996
 20
5052638.4
 10
293448.5
 20
5052634.9
 10
293447.4000000004
 20
5052636.4
 10
293446.5
 20
5052635.699999999
 10
293443.7999999998
 20
5052639.1
 10
293444.7000000002
 20
5052639.800000001
  0
LWPOLYLINE
  5
244
330
1F
100
AcDbEntity
  8
BAT_PATRIMONIAL_L2000_PG
100
AcDbPolyline
 90
        8
 70
     1
 43
0.0
 10
293703.0999999996
 20
5052850.0
 10
293697.0
 20
5052839.9
 10
293663.2000000002
 20
5052862.1
 10
293669.2000000002
 20
5052871.6
 10
293690.0
 20
5052858.800000001
 10
293692.0999999996
 20
5052861.800000001
 10
293697.4000000004
 20
5052858.300000001
 10
293695.5
 20
5052855.0
  0
TEXT
  5
282
330
1F
100
AcDbEntity
  8
zonage_batiment_patrimonailAnno
 62
    18
100
AcDbText
 10
288037.2084050502
 20
5056777.7554
 30
0.0
 40
1.502836339006012
  1
Voir règlement L-2001-3601
  7
Arial
 72
     1
 11
288050.2665499998
 21
5056777.7554
 31
0.0
100
AcDbText
  0
TEXT
  5
284
330
1F
100
AcDbEntity
  8
zonage_batiment_patrimonailAnno
 62
    18
100
AcDbText
 10
282867.2825679155
 20
5053240.670499999
 30
0.0
 40
1.502836339006012
  1
Démoli CA-2009-1215
  7
Arial
 72
     1
 11
282877.65815
 21
5053240.670499999
 31
0.0
100
AcDbText
  0
TEXT
  5
285
330
1F
100
AcDbEntity
  8
zonage_batiment_patrimonailAnno
 62
    18
100
AcDbText
 10
282667.6914889725
 20
5052909.3127
 30
0.0
 40
1.502836339006012
  1
Déplacé
  7
Arial
 72
     1
 11
282671.5387500003
 21
5052909.3127
 31
0.0
100
AcDbText
  0
TEXT
  5
286
330
1F
100
AcDbEntity
  8
zonage_batiment_patrimonailAnno
 62
    18
100
AcDbText
 10
282686.8936908898
 20
5052902.6909
 30
0.0
 40
1.502836339006012
  1
Démoli
  7
Arial
 72
     1
 11
282690.1571
 21
5052902.6909
 31
0.0
100
AcDbText
  0
TEXT
  5
287
330
1F
100
AcDbEntity
  8
zonage_batiment_patrimonailAnno
 62
    18
100
AcDbText
 10
287041.2306408897
 20
5051637.7245
 30
0.0
 40
1.502836339006012
  1
Démoli
  7
Arial
 72
     1
 11
287044.4940499999
 21
5051637.7245
 31
0.0
100
AcDbText
  0
TEXT
  5
288
330
1F
100
AcDbEntity
  8
zonage_batiment_patrimonailAnno
 62
    18
100
AcDbText
 10
296177.6558272836
 20
5061144.7151
 30
0.0
 40
1.502836339006012
  1
DÉMOLI - CA-2014-0326
  7
Arial
 72
     1
 11
296189.4305499997
 21
5061144.7151
 31
0.0
100
AcDbText
  0
ENDSEC
  0
SECTION
  2
OBJECTS
  0
DICTIONARY
  5
C
330
0
100
AcDbDictionary
281
     1
  3
ACAD_GROUP
350
D
  3
ACAD_LAYOUT
350
1A
  3
ACAD_MATERIAL
350
43
  3
ACAD_MLEADERSTYLE
350
6B
  3
ACAD_MLINESTYLE
350
17
  3
ACAD_PLOTSETTINGS
350
19
  3
ACAD_PLOTSTYLENAME
350
E
  3
ACAD_SCALELIST
350
47
  3
ACAD_TABLESTYLE
350
69
  3
ACAD_VISUALSTYLE
350
2A
  3
AcDbVariableDictionary
350
6E
  3
DWGPROPS
350
28C
  3
ESRI_PRJ
350
245
  0
DICTIONARY
  5
28D
330
8
100
AcDbDictionary
280
     1
281
     1
  3
ACAD_XREC_ROUNDTRIP
360
28E
  0
DICTIONARY
  5
D
102
{ACAD_REACTORS
330
C
102
}
330
C
100
AcDbDictionary
281
     1
  0
DICTIONARY
  5
1A
102
{ACAD_REACTORS
330
C
102
}
330
C
100
AcDbDictionary
281
     1
  3
Layout1
350
1E
  3
Layout2
350
26
  3
Model
350
22
  0
DICTIONARY
  5
43
102
{ACAD_REACTORS
330
C
102
}
330
C
100
AcDbDictionary
281
     1
  3
ByBlock
350
45
  3
ByLayer
350
44
  3
Global
350
46
  0
DICTIONARY
  5
6B
102
{ACAD_REACTORS
330
C
102
}
330
C
100
AcDbDictionary
281
     1
  3
Standard
350
6C
  0
DICTIONARY
  5
17
102
{ACAD_REACTORS
330
C
102
}
330
C
100
AcDbDictionary
281
     1
  3
Standard
350
18
  0
DICTIONARY
  5
19
102
{ACAD_REACTORS
330
C
102
}
330
C
100
AcDbDictionary
281
     1
  0
ACDBDICTIONARYWDFLT
  5
E
102
{ACAD_REACTORS
330
C
102
}
330
C
100
AcDbDictionary
281
     1
  3
Normal
350
F
100
AcDbDictionaryWithDefault
340
F
  0
DICTIONARY
  5
47
102
{ACAD_REACTORS
330
C
102
}
330
C
100
AcDbDictionary
281
     1
  3
A0
350
48
  3
A1
350
49
  3
A2
350
4A
  3
A3
350
4B
  3
A4
350
4C
  3
A5
350
4D
  3
A6
350
4E
  3
A7
350
4F
  3
A8
350
50
  3
A9
350
51
  3
B0
350
52
  3
B1
350
53
  3
B2
350
54
  3
B3
350
55
  3
B4
350
56
  3
B5
350
57
  3
B6
350
58
  3
B7
350
59
  3
B8
350
5A
  3
B9
350
5B
  3
C0
350
5C
  3
C1
350
5D
  3
C2
350
5E
  3
C3
350
5F
  3
C4
350
60
  3
C5
350
61
  3
C6
350
62
  3
C7
350
63
  3
C8
350
64
  3
C9
350
65
  3
D0
350
66
  3
D1
350
67
  3
D2
350
68
  0
DICTIONARY
  5
69
102
{ACAD_REACTORS
330
C
102
}
330
C
100
AcDbDictionary
281
     1
  3
Standard
350
6A
  0
DICTIONARY
  5
2A
102
{ACAD_REACTORS
330
C
102
}
330
C
100
AcDbDictionary
281
     1
  3
2dWireframe
350
2F
  3
Basic
350
32
  3
Brighten
350
36
  3
ColorChange
350
3A
  3
Conceptual
350
34
  3
Dim
350
35
  3
EdgeColorOff
350
3D
  3
Facepattern
350
39
  3
Flat
350
2B
  3
FlatWithEdges
350
2C
  3
Gouraud
350
2D
  3
GouraudWithEdges
350
2E
  3
Hidden
350
31
  3
JitterOff
350
3B
  3
Linepattern
350
38
  3
OverhangOff
350
3C
  3
Realistic
350
33
  3
Shaded
350
42
  3
Shaded with edges
350
41
  3
Shades of Gray
350
3E
  3
Sketchy
350
3F
  3
Thicken
350
37
  3
Wireframe
350
30
  3
X-Ray
350
40
  0
DICTIONARY
  5
6E
102
{ACAD_REACTORS
330
C
102
}
330
C
100
AcDbDictionary
281
     1
  3
CANNOSCALE
350
28F
  3
CMLEADERSTYLE
350
70
  3
CTABLESTYLE
350
6F
  3
DIMASSOC
350
73
  3
HIDETEXT
350
74
  3
MSLTSCALE
350
78
  0
XRECORD
  5
28C
102
{ACAD_REACTORS
330
C
102
}
330
C
100
AcDbXrecord
280
     1
  1
DWGPROPS COOKIE
  2

  3

  4

  6

  7

  8

  9

300
=
301
=
302
=
303
=
304
=
305
=
306
=
307
=
308
=
309
=
 40
0.0
 41
2458768.827911042
 42
2458768.827916366
  1

 90
        0
  0
XRECORD
  5
245
102
{ACAD_REACTORS
330
C
102
}
330
C
100
AcDbXrecord
280
     1
  1
PROJCS["NAD_1983_MTM_8",GEOGCS["GCS_North_American_1983",DATUM["D_North_American_1983",SPHEROID["GRS_1980",6378137.0,298.257222101]],PRIMEM["Greenwich",0.0],UNIT["Degree",0.0174532925199433]],PROJECTION["Transverse_Mercator"],PARAMETER["False_Easting",304800.0],PARAMETER["False_Northing",0.0],PARAMETER["Central_Meridian",-73.5],PARAMETER["Scale_Factor",0.9999],PARAMETER["Latitude_Of_Origin",0.0],UNIT["Meter",1.0]]
  0
XRECORD
  5
28E
102
{ACAD_REACTORS
330
28D
102
}
330
28D
100
AcDbXrecord
280
     1
102
VTR_0.000_0.000_1.000_1.000_VISUALSTYLE
340
2F
102
VTR_0.000_0.000_1.000_1.000_GRIDDISPLAY
 70
     3
102
VTR_0.000_0.000_1.000_1.000_GRIDMAJOR
 70
     5
102
VTR_0.000_0.000_1.000_1.000_DEFAULTLIGHTING
280
     1
102
VTR_0.000_0.000_1.000_1.000_DEFAULTLIGHTINGTYPE
 70
     1
102
VTR_0.000_0.000_1.000_1.000_BRIGHTNESS
141
0.0
102
VTR_0.000_0.000_1.000_1.000_CONTRAST
142
0.0
  0
LAYOUT
  5
1E
102
{ACAD_REACTORS
330
1A
102
}
330
1A
100
AcDbPlotSettings
  1

  2
none_device
  4

  6

 40
0.0
 41
0.0
 42
0.0
 43
0.0
 44
0.0
 45
0.0
 46
0.0
 47
0.0
 48
0.0
 49
0.0
140
0.0
141
0.0
142
1.0
143
1.0
 70
   688
 72
     0
 73
     0
 74
     5
  7

 75
    16
147
1.0
148
0.0
149
0.0
100
AcDbLayout
  1
Layout1
 70
     1
 71
     1
 10
0.0
 20
0.0
 11
12.0
 21
9.0
 12
0.0
 22
0.0
 32
0.0
 14
1.000000000000000E+20
 24
1.000000000000000E+20
 34
1.000000000000000E+20
 15
-1.000000000000000E+20
 25
-1.000000000000000E+20
 35
-1.000000000000000E+20
146
0.0
 13
0.0
 23
0.0
 33
0.0
 16
1.0
 26
0.0
 36
0.0
 17
0.0
 27
1.0
 37
0.0
 76
     0
330
1B
  0
LAYOUT
  5
26
102
{ACAD_REACTORS
330
1A
102
}
330
1A
100
AcDbPlotSettings
  1

  2
none_device
  4

  6

 40
0.0
 41
0.0
 42
0.0
 43
0.0
 44
0.0
 45
0.0
 46
0.0
 47
0.0
 48
0.0
 49
0.0
140
0.0
141
0.0
142
1.0
143
1.0
 70
   688
 72
     0
 73
     0
 74
     5
  7

 75
    16
147
1.0
148
0.0
149
0.0
100
AcDbLayout
  1
Layout2
 70
     1
 71
     2
 10
0.0
 20
0.0
 11
0.0
 21
0.0
 12
0.0
 22
0.0
 32
0.0
 14
0.0
 24
0.0
 34
0.0
 15
0.0
 25
0.0
 35
0.0
146
0.0
 13
0.0
 23
0.0
 33
0.0
 16
1.0
 26
0.0
 36
0.0
 17
0.0
 27
1.0
 37
0.0
 76
     0
330
23
  0
LAYOUT
  5
22
102
{ACAD_REACTORS
330
1A
102
}
330
1A
100
AcDbPlotSettings
  1

  2
none_device
  4
Letter_(8.50_x_11.00_Inches)
  6

 40
6.35
 41
6.35
 42
6.35000508
 43
6.35000508
 44
215.9
 45
279.4
 46
0.0
 47
0.0
 48
0.0
 49
0.0
140
0.0
141
0.0
142
1.0
143
1.0
 70
  1712
 72
     0
 73
     0
 74
     0
  7

 75
     0
147
1.0
148
0.0
149
0.0
100
AcDbLayout
  1
Model
 70
     1
 71
     0
 10
0.0
 20
0.0
 11
12.0
 21
9.0
 12
0.0
 22
0.0
 32
0.0
 14
275177.2999999998
 24
5042262.800000001
 34
0.0
 15
300325.4550000001
 25
5062115.286599999
 35
0.0
146
0.0
 13
0.0
 23
0.0
 33
0.0
 16
1.0
 26
0.0
 36
0.0
 17
0.0
 27
1.0
 37
0.0
 76
     0
330
1F
331
29
  0
MATERIAL
  5
45
102
{ACAD_REACTORS
330
43
102
}
102
{ACAD_XDICTIONARY
360
290
102
}
330
43
100
AcDbMaterial
  1
ByBlock
  0
MATERIAL
  5
44
102
{ACAD_REACTORS
330
43
102
}
102
{ACAD_XDICTIONARY
360
292
102
}
330
43
100
AcDbMaterial
  1
ByLayer
  0
MATERIAL
  5
46
102
{ACAD_REACTORS
330
43
102
}
102
{ACAD_XDICTIONARY
360
294
102
}
330
43
100
AcDbMaterial
  1
Global
  0
MLEADERSTYLE
  5
6C
102
{ACAD_REACTORS
330
6B
102
}
102
{ACAD_XDICTIONARY
360
296
102
}
330
6B
100
AcDbMLeaderStyle
170
     2
171
     1
172
     0
 90
        2
 40
0.0
 41
0.0
173
     1
 91
-1056964608
340
14
 92
       -2
290
     1
 42
0.09
291
     1
 43
0.36
  3
Standard
341
0
 44
0.18
300

342
11
174
     1
178
     6
175
     1
176
     0
 93
-1056964608
 45
0.18
292
     0
297
     0
 46
0.18
343
0
 94
-1056964608
 47
1.0
 49
1.0
140
1.0
293
     1
141
0.0
294
     1
177
     0
142
1.0
295
     0
296
     0
143
0.125
1001
ACAD_MLEADERVER
1070
     2
  0
MLINESTYLE
  5
18
102
{ACAD_REACTORS
330
17
102
}
330
17
100
AcDbMlineStyle
  2
Standard
 70
     0
  3

 62
   256
 51
90.0
 52
90.0
 71
     2
 49
0.5
 62
   256
  6
BYLAYER
 49
-0.5
 62
   256
  6
BYLAYER
  0
ACDBPLACEHOLDER
  5
F
102
{ACAD_REACTORS
330
E
102
}
330
E
  0
SCALE
  5
48
102
{ACAD_REACTORS
330
47
102
}
330
47
100
AcDbScale
 70
     0
300
1:1
140
1.0
141
1.0
290
     1
  0
SCALE
  5
49
102
{ACAD_REACTORS
330
47
102
}
330
47
100
AcDbScale
 70
     0
300
1:2
140
1.0
141
2.0
290
     0
  0
SCALE
  5
4A
102
{ACAD_REACTORS
330
47
102
}
330
47
100
AcDbScale
 70
     0
300
1:4
140
1.0
141
4.0
290
     0
  0
SCALE
  5
4B
102
{ACAD_REACTORS
330
47
102
}
330
47
100
AcDbScale
 70
     0
300
1:5
140
1.0
141
5.0
290
     0
  0
SCALE
  5
4C
102
{ACAD_REACTORS
330
47
102
}
330
47
100
AcDbScale
 70
     0
300
1:8
140
1.0
141
8.0
290
     0
  0
SCALE
  5
4D
102
{ACAD_REACTORS
330
47
102
}
330
47
100
AcDbScale
 70
     0
300
1:10
140
1.0
141
10.0
290
     0
  0
SCALE
  5
4E
102
{ACAD_REACTORS
330
47
102
}
330
47
100
AcDbScale
 70
     0
300
1:16
140
1.0
141
16.0
290
     0
  0
SCALE
  5
4F
102
{ACAD_REACTORS
330
47
102
}
330
47
100
AcDbScale
 70
     0
300
1:20
140
1.0
141
20.0
290
     0
  0
SCALE
  5
50
102
{ACAD_REACTORS
330
47
102
}
330
47
100
AcDbScale
 70
     0
300
1:30
140
1.0
141
30.0
290
     0
  0
SCALE
  5
51
102
{ACAD_REACTORS
330
47
102
}
330
47
100
AcDbScale
 70
     0
300
1:40
140
1.0
141
40.0
290
     0
  0
SCALE
  5
52
102
{ACAD_REACTORS
330
47
102
}
330
47
100
AcDbScale
 70
     0
300
1:50
140
1.0
141
50.0
290
     0
  0
SCALE
  5
53
102
{ACAD_REACTORS
330
47
102
}
330
47
100
AcDbScale
 70
     0
300
1:100
140
1.0
141
100.0
290
     0
  0
SCALE
  5
54
102
{ACAD_REACTORS
330
47
102
}
330
47
100
AcDbScale
 70
     0
300
2:1
140
2.0
141
1.0
290
     0
  0
SCALE
  5
55
102
{ACAD_REACTORS
330
47
102
}
330
47
100
AcDbScale
 70
     0
300
4:1
140
4.0
141
1.0
290
     0
  0
SCALE
  5
56
102
{ACAD_REACTORS
330
47
102
}
330
47
100
AcDbScale
 70
     0
300
8:1
140
8.0
141
1.0
290
     0
  0
SCALE
  5
57
102
{ACAD_REACTORS
330
47
102
}
330
47
100
AcDbScale
 70
     0
300
10:1
140
10.0
141
1.0
290
     0
  0
SCALE
  5
58
102
{ACAD_REACTORS
330
47
102
}
330
47
100
AcDbScale
 70
     0
300
100:1
140
100.0
141
1.0
290
     0
  0
SCALE
  5
59
102
{ACAD_REACTORS
330
47
102
}
330
47
100
AcDbScale
 70
     0
300
1/128" = 1'-0"
140
0.0078125
141
12.0
290
     0
  0
SCALE
  5
5A
102
{ACAD_REACTORS
330
47
102
}
330
47
100
AcDbScale
 70
     0
300
1/64" = 1'-0"
140
0.015625
141
12.0
290
     0
  0
SCALE
  5
5B
102
{ACAD_REACTORS
330
47
102
}
330
47
100
AcDbScale
 70
     0
300
1/32" = 1'-0"
140
0.03125
141
12.0
290
     0
  0
SCALE
  5
5C
102
{ACAD_REACTORS
330
47
102
}
330
47
100
AcDbScale
 70
     0
300
1/16" = 1'-0"
140
0.0625
141
12.0
290
     0
  0
SCALE
  5
5D
102
{ACAD_REACTORS
330
47
102
}
330
47
100
AcDbScale
 70
     0
300
3/32" = 1'-0"
140
0.09375
141
12.0
290
     0
  0
SCALE
  5
5E
102
{ACAD_REACTORS
330
47
102
}
330
47
100
AcDbScale
 70
     0
300
1/8" = 1'-0"
140
0.125
141
12.0
290
     0
  0
SCALE
  5
5F
102
{ACAD_REACTORS
330
47
102
}
330
47
100
AcDbScale
 70
     0
300
3/16" = 1'-0"
140
0.1875
141
12.0
290
     0
  0
SCALE
  5
60
102
{ACAD_REACTORS
330
47
102
}
330
47
100
AcDbScale
 70
     0
300
1/4" = 1'-0"
140
0.25
141
12.0
290
     0
  0
SCALE
  5
61
102
{ACAD_REACTORS
330
47
102
}
330
47
100
AcDbScale
 70
     0
300
3/8" = 1'-0"
140
0.375
141
12.0
290
     0
  0
SCALE
  5
62
102
{ACAD_REACTORS
330
47
102
}
330
47
100
AcDbScale
 70
     0
300
1/2" = 1'-0"
140
0.5
141
12.0
290
     0
  0
SCALE
  5
63
102
{ACAD_REACTORS
330
47
102
}
330
47
100
AcDbScale
 70
     0
300
3/4" = 1'-0"
140
0.75
141
12.0
290
     0
  0
SCALE
  5
64
102
{ACAD_REACTORS
330
47
102
}
330
47
100
AcDbScale
 70
     0
300
1" = 1'-0"
140
1.0
141
12.0
290
     0
  0
SCALE
  5
65
102
{ACAD_REACTORS
330
47
102
}
330
47
100
AcDbScale
 70
     0
300
1-1/2" = 1'-0"
140
1.5
141
12.0
290
     0
  0
SCALE
  5
66
102
{ACAD_REACTORS
330
47
102
}
330
47
100
AcDbScale
 70
     0
300
3" = 1'-0"
140
3.0
141
12.0
290
     0
  0
SCALE
  5
67
102
{ACAD_REACTORS
330
47
102
}
330
47
100
AcDbScale
 70
     0
300
6" = 1'-0"
140
6.0
141
12.0
290
     0
  0
SCALE
  5
68
102
{ACAD_REACTORS
330
47
102
}
330
47
100
AcDbScale
 70
     0
300
1'-0" = 1'-0"
140
12.0
141
12.0
290
     0
  0
TABLESTYLE
  5
6A
102
{ACAD_REACTORS
330
69
102
}
330
69
100
AcDbTableStyle
  3
Standard
 70
     0
 71
     0
 40
0.06
 41
0.06
280
     0
281
     0
  7
Standard
140
0.18
170
     2
 62
     0
 63
   257
283
     0
274
    -2
284
     1
 64
     0
275
    -2
285
     1
 65
     0
276
    -2
286
     1
 66
     0
277
    -2
287
     1
 67
     0
278
    -2
288
     1
 68
     0
279
    -2
289
     1
 69
     0
  7
Standard
140
0.25
170
     5
 62
     0
 63
   257
283
     0
274
    -2
284
     1
 64
     0
275
    -2
285
     1
 65
     0
276
    -2
286
     1
 66
     0
277
    -2
287
     1
 67
     0
278
    -2
288
     1
 68
     0
279
    -2
289
     1
 69
     0
  7
Standard
140
0.18
170
     5
 62
     0
 63
   257
283
     0
274
    -2
284
     1
 64
     0
275
    -2
285
     1
 65
     0
276
    -2
286
     1
 66
     0
277
    -2
287
     1
 67
     0
278
    -2
288
     1
 68
     0
279
    -2
289
     1
 69
     0
  0
VISUALSTYLE
  5
2F
102
{ACAD_REACTORS
330
2A
102
}
102
{ACAD_XDICTIONARY
360
298
102
}
330
2A
100
AcDbVisualStyle
  2
2dWireframe
 70
     4
 71
     0
 72
     2
 73
     0
 90
        0
 40
0.6
 41
30.0
 62
     5
 63
     7
 74
     1
 91
        4
 64
     7
 65
   257
 75
     1
175
     1
 42
1.0
 92
        0
 66
   257
 43
1.0
 76
     1
 77
     6
 78
     2
 67
     7
 79
     5
170
     0
171
     0
290
     0
174
     0
 93
        1
 44
0.0
173
     0
291
     0
 45
0.0
1001
ACAD
1000
AcDbSavedByObjectVersion
1070
     0
  0
VISUALSTYLE
  5
32
102
{ACAD_REACTORS
330
2A
102
}
102
{ACAD_XDICTIONARY
360
29A
102
}
330
2A
100
AcDbVisualStyle
  2
Basic
 70
     7
 71
     1
 72
     0
 73
     1
 90
        0
 40
0.6
 41
30.0
 62
     5
 63
     7
 74
     0
 91
        4
 64
     7
 65
   257
 75
     1
175
     1
 42
1.0
 92
        8
 66
     7
 43
1.0
 76
     1
 77
     6
 78
     2
 67
     7
 79
     5
170
     0
171
     0
290
     0
174
     0
 93
        1
 44
0.0
173
     0
291
     1
 45
0.0
1001
ACAD
1000
AcDbSavedByObjectVersion
1070
     0
  0
VISUALSTYLE
  5
36
102
{ACAD_REACTORS
330
2A
102
}
102
{ACAD_XDICTIONARY
360
29C
102
}
330
2A
100
AcDbVisualStyle
  2
Brighten
 70
    12
 71
     2
 72
     2
 73
     0
 90
        0
 40
0.6
 41
30.0
 62
     5
 63
     7
 74
     1
 91
        4
 64
     7
 65
   257
 75
     1
175
     1
 42
1.0
 92
        8
 66
     7
 43
1.0
 76
     1
 77
     6
 78
     2
 67
     7
 79
     5
170
     0
171
     0
290
     0
174
     0
 93
        1
 44
50.0
173
     0
291
     1
 45
0.0
1001
ACAD
1000
AcDbSavedByObjectVersion
1070
     0
  0
VISUALSTYLE
  5
3A
102
{ACAD_REACTORS
330
2A
102
}
102
{ACAD_XDICTIONARY
360
29E
102
}
330
2A
100
AcDbVisualStyle
  2
ColorChange
 70
    16
 71
     2
 72
     2
 73
     3
 90
        0
 40
0.6
 41
30.0
 62
     5
 63
     8
 74
     1
 91
        4
 64
     7
 65
   257
 75
     1
175
     1
 42
1.0
 92
        8
 66
     8
 43
1.0
 76
     1
 77
     6
 78
     2
 67
     7
 79
     5
170
     0
171
     0
290
     0
174
     0
 93
        1
 44
0.0
173
     0
291
     1
 45
0.0
1001
ACAD
1000
AcDbSavedByObjectVersion
1070
     0
  0
VISUALSTYLE
  5
34
102
{ACAD_REACTORS
330
2A
102
}
102
{ACAD_XDICTIONARY
360
2A0
102
}
330
2A
100
AcDbVisualStyle
  2
Conceptual
 70
     9
 71
     3
 72
     2
 73
     0
 90
        0
 40
0.6
 41
30.0
 62
     5
 63
     7
 74
     2
 91
        2
 64
     7
 65
   257
 75
     1
175
     1
 42
179.0
 92
        8
 66
     7
 43
1.0
 76
     1
 77
     6
 78
     2
 67
     7
 79
     3
170
     0
171
     0
290
     0
174
     0
 93
        1
 44
0.0
173
     0
291
     0
 45
0.0
1001
ACAD
1000
AcDbSavedByObjectVersion
1070
     0
  0
VISUALSTYLE
  5
35
102
{ACAD_REACTORS
330
2A
102
}
102
{ACAD_XDICTIONARY
360
2A2
102
}
330
2A
100
AcDbVisualStyle
  2
Dim
 70
    11
 71
     2
 72
     2
 73
     0
 90
        0
 40
0.6
 41
30.0
 62
     5
 63
     7
 74
     1
 91
        4
 64
     7
 65
   257
 75
     1
175
     1
 42
1.0
 92
        8
 66
     7
 43
1.0
 76
     1
 77
     6
 78
     2
 67
     7
 79
     5
170
     0
171
     0
290
     0
174
     0
 93
        1
 44
-50.0
173
     0
291
     1
 45
0.0
1001
ACAD
1000
AcDbSavedByObjectVersion
1070
     0
  0
VISUALSTYLE
  5
3D
102
{ACAD_REACTORS
330
2A
102
}
102
{ACAD_XDICTIONARY
360
2A4
102
}
330
2A
100
AcDbVisualStyle
  2
EdgeColorOff
 70
    22
 71
     2
 72
     2
 73
     0
 90
        0
 40
0.6
 41
30.0
 62
     5
 63
     7
 74
     1
 91
        4
 64
     7
 65
   257
 75
     1
175
     1
 42
1.0
 92
        8
 66
     7
 43
1.0
 76
     1
 77
     6
 78
     2
 67
     7
 79
     5
170
     0
171
     0
290
     0
174
     0
 93
        1
 44
0.0
173
     0
291
     1
 45
0.0
1001
ACAD
1000
AcDbSavedByObjectVersion
1070
     0
  0
VISUALSTYLE
  5
39
102
{ACAD_REACTORS
330
2A
102
}
102
{ACAD_XDICTIONARY
360
2A6
102
}
330
2A
100
AcDbVisualStyle
  2
Facepattern
 70
    15
 71
     2
 72
     2
 73
     0
 90
        0
 40
0.6
 41
30.0
 62
     5
 63
     7
 74
     1
 91
        4
 64
     7
 65
   257
 75
     1
175
     1
 42
1.0
 92
        8
 66
     7
 43
1.0
 76
     1
 77
     6
 78
     2
 67
     7
 79
     5
170
     0
171
     0
290
     0
174
     0
 93
        1
 44
0.0
173
     0
291
     1
 45
0.0
1001
ACAD
1000
AcDbSavedByObjectVersion
1070
     0
  0
VISUALSTYLE
  5
2B
102
{ACAD_REACTORS
330
2A
102
}
102
{ACAD_XDICTIONARY
360
2A8
102
}
330
2A
100
AcDbVisualStyle
  2
Flat
 70
     0
 71
     2
 72
     1
 73
     1
 90
        2
 40
0.6
 41
30.0
 62
     5
 63
     7
 74
     0
 91
        0
 64
     7
 65
   257
 75
     1
175
     1
 42
1.0
 92
        8
 66
     7
 43
1.0
 76
     1
 77
     6
 78
     2
 67
     7
 79
     5
170
     0
171
     0
290
     0
174
     0
 93
       13
 44
0.0
173
     0
291
     1
 45
0.0
1001
ACAD
1000
AcDbSavedByObjectVersion
1070
     0
  0
VISUALSTYLE
  5
2C
102
{ACAD_REACTORS
330
2A
102
}
102
{ACAD_XDICTIONARY
360
2AA
102
}
330
2A
100
AcDbVisualStyle
  2
FlatWithEdges
 70
     1
 71
     2
 72
     1
 73
     1
 90
        2
 40
0.6
 41
30.0
 62
     5
 63
     7
 74
     1
 91
        0
 64
     7
 65
   257
 75
     1
175
     1
 42
1.0
 92
        0
 66
   257
 43
1.0
 76
     1
 77
     6
 78
     2
 67
     7
 79
     5
170
     0
171
     0
290
     0
174
     0
 93
       13
 44
0.0
173
     0
291
     1
 45
0.0
1001
ACAD
1000
AcDbSavedByObjectVersion
1070
     0
  0
VISUALSTYLE
  5
2D
102
{ACAD_REACTORS
330
2A
102
}
102
{ACAD_XDICTIONARY
360
2AC
102
}
330
2A
100
AcDbVisualStyle
  2
Gouraud
 70
     2
 71
     2
 72
     2
 73
     1
 90
        2
 40
0.6
 41
30.0
 62
     5
 63
     7
 74
     0
 91
        0
 64
     7
 65
   257
 75
     1
175
     1
 42
1.0
 92
        0
 66
     7
 43
1.0
 76
     1
 77
     6
 78
     2
 67
     7
 79
     5
170
     0
171
     0
290
     0
174
     0
 93
       13
 44
0.0
173
     0
291
     1
 45
0.0
1001
ACAD
1000
AcDbSavedByObjectVersion
1070
     0
  0
VISUALSTYLE
  5
2E
102
{ACAD_REACTORS
330
2A
102
}
102
{ACAD_XDICTIONARY
360
2AE
102
}
330
2A
100
AcDbVisualStyle
  2
GouraudWithEdges
 70
     3
 71
     2
 72
     2
 73
     1
 90
        2
 40
0.6
 41
30.0
 62
     5
 63
     7
 74
     1
 91
        0
 64
     7
 65
   257
 75
     1
175
     1
 42
1.0
 92
        0
 66
   257
 43
1.0
 76
     1
 77
     6
 78
     2
 67
     7
 79
     5
170
     0
171
     0
290
     0
174
     0
 93
       13
 44
0.0
173
     0
291
     1
 45
0.0
1001
ACAD
1000
AcDbSavedByObjectVersion
1070
     0
  0
VISUALSTYLE
  5
31
102
{ACAD_REACTORS
330
2A
102
}
102
{ACAD_XDICTIONARY
360
2B0
102
}
330
2A
100
AcDbVisualStyle
  2
Hidden
 70
     6
 71
     1
 72
     2
 73
     2
 90
        0
 40
0.6
 41
30.0
 62
     5
 63
     7
 74
     2
 91
        2
 64
     7
 65
   257
 75
     2
175
     1
 42
40.0
 92
        0
 66
   257
 43
1.0
 76
     1
 77
     6
 78
     2
 67
     7
 79
     3
170
     0
171
     0
290
     0
174
     0
 93
        1
 44
0.0
173
     0
291
     0
 45
0.0
1001
ACAD
1000
AcDbSavedByObjectVersion
1070
     0
  0
VISUALSTYLE
  5
3B
102
{ACAD_REACTORS
330
2A
102
}
102
{ACAD_XDICTIONARY
360
2B2
102
}
330
2A
100
AcDbVisualStyle
  2
JitterOff
 70
    20
 71
     2
 72
     2
 73
     0
 90
        0
 40
0.6
 41
30.0
 62
     5
 63
     7
 74
     1
 91
        4
 64
     7
 65
   257
 75
     1
175
     1
 42
1.0
 92
       10
 66
     7
 43
1.0
 76
     1
 77
     6
 78
     2
 67
     7
 79
     5
170
     0
171
     0
290
     0
174
     0
 93
        1
 44
0.0
173
     0
291
     1
 45
0.0
1001
ACAD
1000
AcDbSavedByObjectVersion
1070
     0
  0
VISUALSTYLE
  5
38
102
{ACAD_REACTORS
330
2A
102
}
102
{ACAD_XDICTIONARY
360
2B4
102
}
330
2A
100
AcDbVisualStyle
  2
Linepattern
 70
    14
 71
     2
 72
     2
 73
     0
 90
        0
 40
0.6
 41
30.0
 62
     5
 63
     7
 74
     1
 91
        4
 64
     7
 65
   257
 75
     7
175
     7
 42
1.0
 92
        8
 66
     7
 43
1.0
 76
     1
 77
     6
 78
     2
 67
     7
 79
     5
170
     0
171
     0
290
     0
174
     0
 93
        1
 44
0.0
173
     0
291
     1
 45
0.0
1001
ACAD
1000
AcDbSavedByObjectVersion
1070
     0
  0
VISUALSTYLE
  5
3C
102
{ACAD_REACTORS
330
2A
102
}
102
{ACAD_XDICTIONARY
360
2B6
102
}
330
2A
100
AcDbVisualStyle
  2
OverhangOff
 70
    21
 71
     2
 72
     2
 73
     0
 90
        0
 40
0.6
 41
30.0
 62
     5
 63
     7
 74
     1
 91
        4
 64
     7
 65
   257
 75
     1
175
     1
 42
1.0
 92
        9
 66
     7
 43
1.0
 76
     1
 77
     6
 78
     2
 67
     7
 79
     5
170
     0
171
     0
290
     0
174
     0
 93
        1
 44
0.0
173
     0
291
     1
 45
0.0
1001
ACAD
1000
AcDbSavedByObjectVersion
1070
     0
  0
VISUALSTYLE
  5
33
102
{ACAD_REACTORS
330
2A
102
}
102
{ACAD_XDICTIONARY
360
2B8
102
}
330
2A
100
AcDbVisualStyle
  2
Realistic
 70
     8
 71
     2
 72
     3
 73
     0
 90
        2
 40
0.6
 41
30.0
 62
     5
 63
     7
 74
     0
 91
        0
 64
     7
 65
   257
 75
     1
175
     1
 42
1.0
 92
        8
 66
   257
 43
1.0
 76
     1
 77
     6
 78
     2
 67
     7
 79
     3
170
     0
171
     0
290
     0
174
     0
 93
       13
 44
0.0
173
     0
291
     0
 45
0.0
1001
ACAD
1000
AcDbSavedByObjectVersion
1070
     0
  0
VISUALSTYLE
  5
42
102
{ACAD_REACTORS
330
2A
102
}
102
{ACAD_XDICTIONARY
360
2BA
102
}
330
2A
100
AcDbVisualStyle
  2
Shaded
 70
    27
 71
     2
 72
     2
 73
     1
 90
        2
 40
0.6
 41
30.0
 62
     5
 63
     7
 74
     0
 91
        4
 64
     7
 65
   257
 75
     1
175
     1
 42
1.0
 92
        8
 66
   257
 43
1.0
 76
     1
 77
     6
 78
     2
 67
     8
 79
     3
170
     0
171
     0
290
     0
174
     0
 93
        5
 44
0.0
173
     0
291
     0
 45
0.0
1001
ACAD
1000
AcDbSavedByObjectVersion
1070
     0
  0
VISUALSTYLE
  5
41
102
{ACAD_REACTORS
330
2A
102
}
102
{ACAD_XDICTIONARY
360
2BC
102
}
330
2A
100
AcDbVisualStyle
  2
Shaded with edges
 70
    26
 71
     2
 72
     2
 73
     1
 90
        2
 40
0.6
 41
30.0
 62
     5
 63
     7
 74
     1
 91
       10
 64
     7
 65
   257
 75
     2
175
     1
 42
1.0
 92
        8
 66
   257
 43
1.0
 76
     1
 77
     6
 78
     2
 67
     7
 79
     3
170
     0
171
     0
290
     0
174
     0
 93
        5
 44
0.0
173
     0
291
     0
 45
0.0
1001
ACAD
1000
AcDbSavedByObjectVersion
1070
     0
  0
VISUALSTYLE
  5
3E
102
{ACAD_REACTORS
330
2A
102
}
102
{ACAD_XDICTIONARY
360
2BE
102
}
330
2A
100
AcDbVisualStyle
  2
Shades of Gray
 70
    23
 71
     2
 72
     2
 73
     3
 90
        0
 40
0.6
 41
30.0
 62
     5
 63
     7
 74
     2
 91
        2
 64
     7
 65
     7
 75
     1
175
     1
 42
40.0
 92
        8
 66
     7
 43
1.0
 76
     1
 77
     6
 78
     2
 67
     7
 79
     3
170
     0
171
     0
290
     0
174
     0
 93
        1
 44
0.0
173
     0
291
     0
 45
0.0
1001
ACAD
1000
AcDbSavedByObjectVersion
1070
     0
  0
VISUALSTYLE
  5
3F
102
{ACAD_REACTORS
330
2A
102
}
102
{ACAD_XDICTIONARY
360
2C0
102
}
330
2A
100
AcDbVisualStyle
  2
Sketchy
 70
    24
 71
     1
 72
     2
 73
     2
 90
        0
 40
0.6
 41
30.0
 62
     5
 63
     7
 74
     2
 91
        2
 64
     7
 65
     7
 75
     1
175
     1
 42
40.0
 92
       11
 66
     7
 43
1.0
 76
     1
 77
     6
 78
     2
 67
     7
 79
     6
170
     0
171
     0
290
     0
174
     0
 93
        1
 44
0.0
173
     0
291
     0
 45
0.0
1001
ACAD
1000
AcDbSavedByObjectVersion
1070
     0
  0
VISUALSTYLE
  5
37
102
{ACAD_REACTORS
330
2A
102
}
102
{ACAD_XDICTIONARY
360
2C2
102
}
330
2A
100
AcDbVisualStyle
  2
Thicken
 70
    13
 71
     2
 72
     2
 73
     0
 90
        0
 40
0.6
 41
30.0
 62
     5
 63
     7
 74
     1
 91
        4
 64
     7
 65
   257
 75
     1
175
     1
 42
1.0
 92
       12
 66
     7
 43
1.0
 76
     1
 77
     6
 78
     2
 67
     7
 79
     5
170
     0
171
     0
290
     0
174
     0
 93
        1
 44
0.0
173
     0
291
     1
 45
0.0
1001
ACAD
1000
AcDbSavedByObjectVersion
1070
     0
  0
VISUALSTYLE
  5
30
102
{ACAD_REACTORS
330
2A
102
}
102
{ACAD_XDICTIONARY
360
2C4
102
}
330
2A
100
AcDbVisualStyle
  2
Wireframe
 70
     5
 71
     0
 72
     2
 73
     0
 90
        0
 40
0.6
 41
30.0
 62
     5
 63
     7
 74
     1
 91
        4
 64
     7
 65
   257
 75
     1
175
     1
 42
1.0
 92
        0
 66
   257
 43
1.0
 76
     1
 77
     6
 78
     2
 67
     7
 79
     3
170
     0
171
     0
290
     0
174
     0
 93
        1
 44
0.0
173
     0
291
     0
 45
0.0
1001
ACAD
1000
AcDbSavedByObjectVersion
1070
     0
  0
VISUALSTYLE
  5
40
102
{ACAD_REACTORS
330
2A
102
}
102
{ACAD_XDICTIONARY
360
2C6
102
}
330
2A
100
AcDbVisualStyle
  2
X-Ray
 70
    25
 71
     2
 72
     2
 73
     1
 90
        1
 40
0.5
 41
30.0
 62
     5
 63
     7
 74
     1
 91
        0
 64
     7
 65
   257
 75
     1
175
     1
 42
1.0
 92
        8
 66
     7
 43
1.0
 76
     1
 77
     6
 78
     2
 67
     7
 79
     3
170
     0
171
     0
290
     0
174
     0
 93
       13
 44
0.0
173
     0
291
     0
 45
0.0
1001
ACAD
1000
AcDbSavedByObjectVersion
1070
     0
  0
DICTIONARYVAR
  5
28F
102
{ACAD_REACTORS
330
6E
102
}
330
6E
100
DictionaryVariables
280
     0
  1
1:1
  0
DICTIONARYVAR
  5
70
102
{ACAD_REACTORS
330
6E
102
}
330
6E
100
DictionaryVariables
280
     0
  1
Standard
  0
DICTIONARYVAR
  5
6F
102
{ACAD_REACTORS
330
6E
102
}
330
6E
100
DictionaryVariables
280
     0
  1
Standard
  0
DICTIONARYVAR
  5
73
102
{ACAD_REACTORS
330
6E
102
}
330
6E
100
DictionaryVariables
280
     0
  1
2
  0
DICTIONARYVAR
  5
74
102
{ACAD_REACTORS
330
6E
102
}
330
6E
100
DictionaryVariables
280
     0
  1
1
  0
DICTIONARYVAR
  5
78
102
{ACAD_REACTORS
330
6E
102
}
330
6E
100
DictionaryVariables
280
     0
  1
1
  0
DICTIONARY
  5
290
330
45
100
AcDbDictionary
280
     1
281
     1
  3
ACAD_XREC_ROUNDTRIP
360
291
  0
DICTIONARY
  5
292
330
44
100
AcDbDictionary
280
     1
281
     1
  3
ACAD_XREC_ROUNDTRIP
360
293
  0
DICTIONARY
  5
294
330
46
100
AcDbDictionary
280
     1
281
     1
  3
ACAD_XREC_ROUNDTRIP
360
295
  0
DICTIONARY
  5
296
330
6C
100
AcDbDictionary
280
     1
281
     1
  3
ACAD_XREC_ROUNDTRIP
360
297
  0
DICTIONARY
  5
298
330
2F
100
AcDbDictionary
280
     1
281
     1
  3
ACAD_XREC_ROUNDTRIP
360
299
  0
DICTIONARY
  5
29A
330
32
100
AcDbDictionary
280
     1
281
     1
  3
ACAD_XREC_ROUNDTRIP
360
29B
  0
DICTIONARY
  5
29C
330
36
100
AcDbDictionary
280
     1
281
     1
  3
ACAD_XREC_ROUNDTRIP
360
29D
  0
DICTIONARY
  5
29E
330
3A
100
AcDbDictionary
280
     1
281
     1
  3
ACAD_XREC_ROUNDTRIP
360
29F
  0
DICTIONARY
  5
2A0
330
34
100
AcDbDictionary
280
     1
281
     1
  3
ACAD_XREC_ROUNDTRIP
360
2A1
  0
DICTIONARY
  5
2A2
330
35
100
AcDbDictionary
280
     1
281
     1
  3
ACAD_XREC_ROUNDTRIP
360
2A3
  0
DICTIONARY
  5
2A4
330
3D
100
AcDbDictionary
280
     1
281
     1
  3
ACAD_XREC_ROUNDTRIP
360
2A5
  0
DICTIONARY
  5
2A6
330
39
100
AcDbDictionary
280
     1
281
     1
  3
ACAD_XREC_ROUNDTRIP
360
2A7
  0
DICTIONARY
  5
2A8
330
2B
100
AcDbDictionary
280
     1
281
     1
  3
ACAD_XREC_ROUNDTRIP
360
2A9
  0
DICTIONARY
  5
2AA
330
2C
100
AcDbDictionary
280
     1
281
     1
  3
ACAD_XREC_ROUNDTRIP
360
2AB
  0
DICTIONARY
  5
2AC
330
2D
100
AcDbDictionary
280
     1
281
     1
  3
ACAD_XREC_ROUNDTRIP
360
2AD
  0
DICTIONARY
  5
2AE
330
2E
100
AcDbDictionary
280
     1
281
     1
  3
ACAD_XREC_ROUNDTRIP
360
2AF
  0
DICTIONARY
  5
2B0
330
31
100
AcDbDictionary
280
     1
281
     1
  3
ACAD_XREC_ROUNDTRIP
360
2B1
  0
DICTIONARY
  5
2B2
330
3B
100
AcDbDictionary
280
     1
281
     1
  3
ACAD_XREC_ROUNDTRIP
360
2B3
  0
DICTIONARY
  5
2B4
330
38
100
AcDbDictionary
280
     1
281
     1
  3
ACAD_XREC_ROUNDTRIP
360
2B5
  0
DICTIONARY
  5
2B6
330
3C
100
AcDbDictionary
280
     1
281
     1
  3
ACAD_XREC_ROUNDTRIP
360
2B7
  0
DICTIONARY
  5
2B8
330
33
100
AcDbDictionary
280
     1
281
     1
  3
ACAD_XREC_ROUNDTRIP
360
2B9
  0
DICTIONARY
  5
2BA
330
42
100
AcDbDictionary
280
     1
281
     1
  3
ACAD_XREC_ROUNDTRIP
360
2BB
  0
DICTIONARY
  5
2BC
330
41
100
AcDbDictionary
280
     1
281
     1
  3
ACAD_XREC_ROUNDTRIP
360
2BD
  0
DICTIONARY
  5
2BE
330
3E
100
AcDbDictionary
280
     1
281
     1
  3
ACAD_XREC_ROUNDTRIP
360
2BF
  0
DICTIONARY
  5
2C0
330
3F
100
AcDbDictionary
280
     1
281
     1
  3
ACAD_XREC_ROUNDTRIP
360
2C1
  0
DICTIONARY
  5
2C2
330
37
100
AcDbDictionary
280
     1
281
     1
  3
ACAD_XREC_ROUNDTRIP
360
2C3
  0
DICTIONARY
  5
2C4
330
30
100
AcDbDictionary
280
     1
281
     1
  3
ACAD_XREC_ROUNDTRIP
360
2C5
  0
DICTIONARY
  5
2C6
330
40
100
AcDbDictionary
280
     1
281
     1
  3
ACAD_XREC_ROUNDTRIP
360
2C7
  0
XRECORD
  5
291
102
{ACAD_REACTORS
330
290
102
}
330
290
100
AcDbXrecord
280
     1
102
MATERIAL
148
0.0
149
0.0
149
0.0
 93
        0
 94
      127
282
     0
 72
     1
 77
     1
171
     1
175
     1
179
     1
273
     0
  0
XRECORD
  5
293
102
{ACAD_REACTORS
330
292
102
}
330
292
100
AcDbXrecord
280
     1
102
MATERIAL
148
0.0
149
0.0
149
0.0
 93
        0
 94
      127
282
     0
 72
     1
 77
     1
171
     1
175
     1
179
     1
273
     0
  0
XRECORD
  5
295
102
{ACAD_REACTORS
330
294
102
}
330
294
100
AcDbXrecord
280
     1
102
MATERIAL
148
0.0
149
0.0
149
0.0
 93
        0
 94
      127
282
     0
 72
     1
 77
     1
171
     1
175
     1
179
     1
273
     0
  0
XRECORD
  5
297
102
{ACAD_REACTORS
330
296
102
}
330
296
100
AcDbXrecord
280
     1
102
ACAD_ROUNDTRIP_2010_MLEADER_STYLE
  0
XRECORD
  5
299
102
{ACAD_REACTORS
330
298
102
}
330
298
100
AcDbXrecord
280
     1
102
RTVSPropertyOp0
 70
     1
102
RTVSPropertyOp1
 70
     1
102
RTVSPropertyOp2
 70
     1
102
RTVSPropertyOp3
 70
     1
102
RTVSPropertyOp4
 70
     1
102
RTVSPropertyOp5
 70
     1
102
RTVSPropertyOp6
 70
     1
102
RTVSPropertyOp7
 70
     1
102
RTVSPropertyOp8
 70
     1
102
RTVSPropertyOp9
 70
     1
102
RTVSPropertyOp10
 70
     1
102
RTVSPropertyOp11
 70
     1
102
RTVSPropertyOp12
 70
     1
102
RTVSPropertyOp13
 70
     1
102
RTVSPropertyOp14
 70
     1
102
RTVSPropertyOp15
 70
     1
102
RTVSPropertyOp16
 70
     1
102
RTVSPropertyOp17
 70
     1
102
RTVSPropertyOp18
 70
     1
102
RTVSPropertyOp19
 70
     1
102
RTVSPropertyOp20
 70
     1
102
RTVSPropertyOp21
 70
     1
102
RTVSPropertyOp22
 70
     1
102
RTVSPropertyOp23
 70
     1
102
RTVSPropertyOp24
 70
     1
102
RTVSPropertyOp25
 70
     1
102
RTVSPropertyOp26
 70
     1
102
RTVSPropertyOp27
 70
     1
102
RTVSPropertyOp28
 70
     1
102
RTVSPropertyOp29
 70
     1
102
RTVSPropertyOp30
 70
     1
102
RTVSPropertyOp31
 70
     1
102
RTVSPropertyOp32
 70
     1
102
RTVSPropertyOp33
 70
     1
102
RTVSPropertyOp34
 70
     1
102
RTVSPropertyOp35
 70
     1
102
RTVSPropertyOp36
 70
     1
102
RTVSPropertyOp37
 70
     1
102
RTVSPropertyOp38
 70
     1
102
RTVSPropertyOp39
 70
     1
102
RTVSPropertyOp40
 70
     1
102
RTVSPropertyOp41
 70
     1
102
RTVSPropertyOp42
 70
     1
102
RTVSPropertyOp43
 70
     1
102
RTVSPropertyOp44
 70
     1
102
RTVSPropertyOp45
 70
     1
102
RTVSPropertyOp46
 70
     1
102
RTVSPropertyOp47
 70
     1
102
RTVSPropertyOp48
 70
     1
102
RTVSPropertyOp49
 70
     1
102
RTVSPropertyOp50
 70
     1
102
RTVSPropertyOp51
 70
     0
102
RTVSPropertyOp52
 70
     0
102
RTVSPropertyOp53
 70
     1
102
RTVSPropertyOp54
 70
     1
102
RTVSPropertyOp55
 70
     1
102
RTVSPropertyOp56
 70
     1
102
RTVSPropertyOp57
 70
     1
102
RTVSPost2010Prop28
280
     1
102
RTVSPost2010PropOp28
 70
     1
102
RTVSPost2010Prop29
280
     1
102
RTVSPost2010PropOp29
 70
     1
102
RTVSPost2010Prop30
280
     0
102
RTVSPost2010PropOp30
 70
     1
102
RTVSPost2010Prop31
280
     0
102
RTVSPost2010PropOp31
 70
     1
102
RTVSPost2010Prop32
280
     0
102
RTVSPost2010PropOp32
 70
     1
102
RTVSPost2010Prop33
280
     0
102
RTVSPost2010PropOp33
 70
     1
102
RTVSPost2010Prop34
280
     0
102
RTVSPost2010PropOp34
 70
     1
102
RTVSPost2010Prop35
280
     0
102
RTVSPost2010PropOp35
 70
     1
102
RTVSPost2010Prop36
280
     0
102
RTVSPost2010PropOp36
 70
     1
102
RTVSPost2010Prop37
 90
       50
102
RTVSPost2010PropOp37
 70
     1
102
RTVSPost2010Prop38
140
0.0
102
RTVSPost2010PropOp38
 70
     1
102
RTVSPost2010Prop39
140
1.0
102
RTVSPost2010PropOp39
 70
     1
102
RTVSPost2010Prop40
 90
        0
102
RTVSPost2010PropOp40
 70
     1
102
RTVSPost2010Prop41ColorIndex
 90
       18
102
RTVSPost2010Prop41ColorRGB
 90
        0
102
RTVSPost2010PropOp41
 70
     1
102
RTVSPost2010Prop42
 90
       50
102
RTVSPost2010PropOp42
 70
     1
102
RTVSPost2010Prop43
 90
        3
102
RTVSPost2010PropOp43
 70
     1
102
RTVSPost2010Prop44ColorIndex
 90
        5
102
RTVSPost2010Prop44ColorRGB
 90
      255
102
RTVSPost2010PropOp44
 70
     1
102
RTVSPost2010Prop45
280
     0
102
RTVSPost2010PropOp45
 70
     1
102
RTVSPost2010Prop46
 90
       50
102
RTVSPost2010PropOp46
 70
     1
102
RTVSPost2010Prop47
 90
       50
102
RTVSPost2010PropOp47
 70
     1
102
RTVSPost2010Prop48
 90
       50
102
RTVSPost2010PropOp48
 70
     1
102
RTVSPost2010Prop49
280
     0
102
RTVSPost2010PropOp49
 70
     1
102
RTVSPost2010Prop50
 90
       50
102
RTVSPost2010PropOp50
 70
     1
102
RTVSPost2010Prop51ColorIndex
 90
      256
102
RTVSPost2010Prop51ColorRGB
 90
-16777216
102
RTVSPost2010PropOp51
 70
     0
102
RTVSPost2010Prop52
140
1.0
102
RTVSPost2010PropOp52
 70
     0
102
RTVSPost2010Prop53
 90
        2
102
RTVSPost2010PropOp53
 70
     1
102
RTVSPost2010Prop54
  1
strokes_ogs.tif
102
RTVSPost2010PropOp54
 70
     1
102
RTVSPost2010Prop55
280
     0
102
RTVSPost2010PropOp55
 70
     1
102
RTVSPost2010Prop56
140
1.0
102
RTVSPost2010PropOp56
 70
     1
102
RTVSPost2010Prop57
140
1.0
102
RTVSPost2010PropOp57
 70
     1
  0
XRECORD
  5
29B
102
{ACAD_REACTORS
330
29A
102
}
330
29A
100
AcDbXrecord
280
     1
102
RTVSPropertyOp0
 70
     1
102
RTVSPropertyOp1
 70
     1
102
RTVSPropertyOp2
 70
     1
102
RTVSPropertyOp3
 70
     1
102
RTVSPropertyOp4
 70
     1
102
RTVSPropertyOp5
 70
     1
102
RTVSPropertyOp6
 70
     1
102
RTVSPropertyOp7
 70
     1
102
RTVSPropertyOp8
 70
     1
102
RTVSPropertyOp9
 70
     1
102
RTVSPropertyOp10
 70
     1
102
RTVSPropertyOp11
 70
     1
102
RTVSPropertyOp12
 70
     1
102
RTVSPropertyOp13
 70
     1
102
RTVSPropertyOp14
 70
     1
102
RTVSPropertyOp15
 70
     1
102
RTVSPropertyOp16
 70
     1
102
RTVSPropertyOp17
 70
     1
102
RTVSPropertyOp18
 70
     1
102
RTVSPropertyOp19
 70
     1
102
RTVSPropertyOp20
 70
     1
102
RTVSPropertyOp21
 70
     1
102
RTVSPropertyOp22
 70
     1
102
RTVSPropertyOp23
 70
     1
102
RTVSPropertyOp24
 70
     1
102
RTVSPropertyOp25
 70
     1
102
RTVSPropertyOp26
 70
     1
102
RTVSPropertyOp27
 70
     1
102
RTVSPropertyOp28
 70
     1
102
RTVSPropertyOp29
 70
     1
102
RTVSPropertyOp30
 70
     1
102
RTVSPropertyOp31
 70
     1
102
RTVSPropertyOp32
 70
     1
102
RTVSPropertyOp33
 70
     1
102
RTVSPropertyOp34
 70
     1
102
RTVSPropertyOp35
 70
     1
102
RTVSPropertyOp36
 70
     1
102
RTVSPropertyOp37
 70
     1
102
RTVSPropertyOp38
 70
     1
102
RTVSPropertyOp39
 70
     1
102
RTVSPropertyOp40
 70
     1
102
RTVSPropertyOp41
 70
     1
102
RTVSPropertyOp42
 70
     1
102
RTVSPropertyOp43
 70
     1
102
RTVSPropertyOp44
 70
     1
102
RTVSPropertyOp45
 70
     1
102
RTVSPropertyOp46
 70
     1
102
RTVSPropertyOp47
 70
     1
102
RTVSPropertyOp48
 70
     1
102
RTVSPropertyOp49
 70
     1
102
RTVSPropertyOp50
 70
     1
102
RTVSPropertyOp51
 70
     0
102
RTVSPropertyOp52
 70
     0
102
RTVSPropertyOp53
 70
     1
102
RTVSPropertyOp54
 70
     1
102
RTVSPropertyOp55
 70
     1
102
RTVSPropertyOp56
 70
     1
102
RTVSPropertyOp57
 70
     1
102
RTVSPost2010Prop28
280
     0
102
RTVSPost2010PropOp28
 70
     1
102
RTVSPost2010Prop29
280
     1
102
RTVSPost2010PropOp29
 70
     1
102
RTVSPost2010Prop30
280
     1
102
RTVSPost2010PropOp30
 70
     1
102
RTVSPost2010Prop31
280
     0
102
RTVSPost2010PropOp31
 70
     1
102
RTVSPost2010Prop32
280
     0
102
RTVSPost2010PropOp32
 70
     1
102
RTVSPost2010Prop33
280
     0
102
RTVSPost2010PropOp33
 70
     1
102
RTVSPost2010Prop34
280
     0
102
RTVSPost2010PropOp34
 70
     1
102
RTVSPost2010Prop35
280
     0
102
RTVSPost2010PropOp35
 70
     1
102
RTVSPost2010Prop36
280
     0
102
RTVSPost2010PropOp36
 70
     1
102
RTVSPost2010Prop37
 90
       50
102
RTVSPost2010PropOp37
 70
     1
102
RTVSPost2010Prop38
140
0.0
102
RTVSPost2010PropOp38
 70
     1
102
RTVSPost2010Prop39
140
1.0
102
RTVSPost2010PropOp39
 70
     1
102
RTVSPost2010Prop40
 90
        0
102
RTVSPost2010PropOp40
 70
     1
102
RTVSPost2010Prop41ColorIndex
 90
       18
102
RTVSPost2010Prop41ColorRGB
 90
        0
102
RTVSPost2010PropOp41
 70
     1
102
RTVSPost2010Prop42
 90
       50
102
RTVSPost2010PropOp42
 70
     1
102
RTVSPost2010Prop43
 90
        3
102
RTVSPost2010PropOp43
 70
     1
102
RTVSPost2010Prop44ColorIndex
 90
        5
102
RTVSPost2010Prop44ColorRGB
 90
      255
102
RTVSPost2010PropOp44
 70
     1
102
RTVSPost2010Prop45
280
     0
102
RTVSPost2010PropOp45
 70
     1
102
RTVSPost2010Prop46
 90
       50
102
RTVSPost2010PropOp46
 70
     1
102
RTVSPost2010Prop47
 90
       50
102
RTVSPost2010PropOp47
 70
     1
102
RTVSPost2010Prop48
 90
       50
102
RTVSPost2010PropOp48
 70
     1
102
RTVSPost2010Prop49
280
     0
102
RTVSPost2010PropOp49
 70
     1
102
RTVSPost2010Prop50
 90
       50
102
RTVSPost2010PropOp50
 70
     1
102
RTVSPost2010Prop51ColorIndex
 90
      256
102
RTVSPost2010Prop51ColorRGB
 90
-16777216
102
RTVSPost2010PropOp51
 70
     0
102
RTVSPost2010Prop52
140
1.0
102
RTVSPost2010PropOp52
 70
     0
102
RTVSPost2010Prop53
 90
        2
102
RTVSPost2010PropOp53
 70
     1
102
RTVSPost2010Prop54
  1
strokes_ogs.tif
102
RTVSPost2010PropOp54
 70
     1
102
RTVSPost2010Prop55
280
     0
102
RTVSPost2010PropOp55
 70
     1
102
RTVSPost2010Prop56
140
1.0
102
RTVSPost2010PropOp56
 70
     1
102
RTVSPost2010Prop57
140
1.0
102
RTVSPost2010PropOp57
 70
     1
  0
XRECORD
  5
29D
102
{ACAD_REACTORS
330
29C
102
}
330
29C
100
AcDbXrecord
280
     1
102
RTVSPropertyOp0
 70
     1
102
RTVSPropertyOp1
 70
     1
102
RTVSPropertyOp2
 70
     1
102
RTVSPropertyOp3
 70
     1
102
RTVSPropertyOp4
 70
     1
102
RTVSPropertyOp5
 70
     1
102
RTVSPropertyOp6
 70
     1
102
RTVSPropertyOp7
 70
     1
102
RTVSPropertyOp8
 70
     1
102
RTVSPropertyOp9
 70
     1
102
RTVSPropertyOp10
 70
     1
102
RTVSPropertyOp11
 70
     1
102
RTVSPropertyOp12
 70
     1
102
RTVSPropertyOp13
 70
     1
102
RTVSPropertyOp14
 70
     1
102
RTVSPropertyOp15
 70
     1
102
RTVSPropertyOp16
 70
     1
102
RTVSPropertyOp17
 70
     1
102
RTVSPropertyOp18
 70
     1
102
RTVSPropertyOp19
 70
     1
102
RTVSPropertyOp20
 70
     1
102
RTVSPropertyOp21
 70
     1
102
RTVSPropertyOp22
 70
     1
102
RTVSPropertyOp23
 70
     1
102
RTVSPropertyOp24
 70
     1
102
RTVSPropertyOp25
 70
     1
102
RTVSPropertyOp26
 70
     1
102
RTVSPropertyOp27
 70
     1
102
RTVSPropertyOp28
 70
     1
102
RTVSPropertyOp29
 70
     1
102
RTVSPropertyOp30
 70
     1
102
RTVSPropertyOp31
 70
     1
102
RTVSPropertyOp32
 70
     1
102
RTVSPropertyOp33
 70
     1
102
RTVSPropertyOp34
 70
     1
102
RTVSPropertyOp35
 70
     1
102
RTVSPropertyOp36
 70
     1
102
RTVSPropertyOp37
 70
     1
102
RTVSPropertyOp38
 70
     1
102
RTVSPropertyOp39
 70
     1
102
RTVSPropertyOp40
 70
     1
102
RTVSPropertyOp41
 70
     1
102
RTVSPropertyOp42
 70
     1
102
RTVSPropertyOp43
 70
     1
102
RTVSPropertyOp44
 70
     1
102
RTVSPropertyOp45
 70
     1
102
RTVSPropertyOp46
 70
     1
102
RTVSPropertyOp47
 70
     1
102
RTVSPropertyOp48
 70
     1
102
RTVSPropertyOp49
 70
     1
102
RTVSPropertyOp50
 70
     1
102
RTVSPropertyOp51
 70
     0
102
RTVSPropertyOp52
 70
     0
102
RTVSPropertyOp53
 70
     1
102
RTVSPropertyOp54
 70
     1
102
RTVSPropertyOp55
 70
     1
102
RTVSPropertyOp56
 70
     1
102
RTVSPropertyOp57
 70
     1
102
RTVSPost2010Prop28
280
     0
102
RTVSPost2010PropOp28
 70
     1
102
RTVSPost2010Prop29
280
     1
102
RTVSPost2010PropOp29
 70
     1
102
RTVSPost2010Prop30
280
     1
102
RTVSPost2010PropOp30
 70
     1
102
RTVSPost2010Prop31
280
     0
102
RTVSPost2010PropOp31
 70
     1
102
RTVSPost2010Prop32
280
     0
102
RTVSPost2010PropOp32
 70
     1
102
RTVSPost2010Prop33
280
     0
102
RTVSPost2010PropOp33
 70
     1
102
RTVSPost2010Prop34
280
     0
102
RTVSPost2010PropOp34
 70
     1
102
RTVSPost2010Prop35
280
     0
102
RTVSPost2010PropOp35
 70
     1
102
RTVSPost2010Prop36
280
     0
102
RTVSPost2010PropOp36
 70
     1
102
RTVSPost2010Prop37
 90
       50
102
RTVSPost2010PropOp37
 70
     1
102
RTVSPost2010Prop38
140
0.0
102
RTVSPost2010PropOp38
 70
     1
102
RTVSPost2010Prop39
140
1.0
102
RTVSPost2010PropOp39
 70
     1
102
RTVSPost2010Prop40
 90
        0
102
RTVSPost2010PropOp40
 70
     1
102
RTVSPost2010Prop41ColorIndex
 90
       18
102
RTVSPost2010Prop41ColorRGB
 90
        0
102
RTVSPost2010PropOp41
 70
     1
102
RTVSPost2010Prop42
 90
       50
102
RTVSPost2010PropOp42
 70
     1
102
RTVSPost2010Prop43
 90
        3
102
RTVSPost2010PropOp43
 70
     1
102
RTVSPost2010Prop44ColorIndex
 90
        5
102
RTVSPost2010Prop44ColorRGB
 90
      255
102
RTVSPost2010PropOp44
 70
     1
102
RTVSPost2010Prop45
280
     0
102
RTVSPost2010PropOp45
 70
     1
102
RTVSPost2010Prop46
 90
       50
102
RTVSPost2010PropOp46
 70
     1
102
RTVSPost2010Prop47
 90
       50
102
RTVSPost2010PropOp47
 70
     1
102
RTVSPost2010Prop48
 90
       50
102
RTVSPost2010PropOp48
 70
     1
102
RTVSPost2010Prop49
280
     0
102
RTVSPost2010PropOp49
 70
     1
102
RTVSPost2010Prop50
 90
       50
102
RTVSPost2010PropOp50
 70
     1
102
RTVSPost2010Prop51ColorIndex
 90
      256
102
RTVSPost2010Prop51ColorRGB
 90
-16777216
102
RTVSPost2010PropOp51
 70
     0
102
RTVSPost2010Prop52
140
1.0
102
RTVSPost2010PropOp52
 70
     0
102
RTVSPost2010Prop53
 90
        2
102
RTVSPost2010PropOp53
 70
     1
102
RTVSPost2010Prop54
  1
strokes_ogs.tif
102
RTVSPost2010PropOp54
 70
     1
102
RTVSPost2010Prop55
280
     0
102
RTVSPost2010PropOp55
 70
     1
102
RTVSPost2010Prop56
140
1.0
102
RTVSPost2010PropOp56
 70
     1
102
RTVSPost2010Prop57
140
1.0
102
RTVSPost2010PropOp57
 70
     1
  0
XRECORD
  5
29F
102
{ACAD_REACTORS
330
29E
102
}
330
29E
100
AcDbXrecord
280
     1
102
RTVSPropertyOp0
 70
     1
102
RTVSPropertyOp1
 70
     1
102
RTVSPropertyOp2
 70
     1
102
RTVSPropertyOp3
 70
     1
102
RTVSPropertyOp4
 70
     1
102
RTVSPropertyOp5
 70
     1
102
RTVSPropertyOp6
 70
     1
102
RTVSPropertyOp7
 70
     1
102
RTVSPropertyOp8
 70
     1
102
RTVSPropertyOp9
 70
     1
102
RTVSPropertyOp10
 70
     1
102
RTVSPropertyOp11
 70
     1
102
RTVSPropertyOp12
 70
     1
102
RTVSPropertyOp13
 70
     1
102
RTVSPropertyOp14
 70
     1
102
RTVSPropertyOp15
 70
     1
102
RTVSPropertyOp16
 70
     1
102
RTVSPropertyOp17
 70
     1
102
RTVSPropertyOp18
 70
     1
102
RTVSPropertyOp19
 70
     1
102
RTVSPropertyOp20
 70
     1
102
RTVSPropertyOp21
 70
     1
102
RTVSPropertyOp22
 70
     1
102
RTVSPropertyOp23
 70
     1
102
RTVSPropertyOp24
 70
     1
102
RTVSPropertyOp25
 70
     1
102
RTVSPropertyOp26
 70
     1
102
RTVSPropertyOp27
 70
     1
102
RTVSPropertyOp28
 70
     1
102
RTVSPropertyOp29
 70
     1
102
RTVSPropertyOp30
 70
     1
102
RTVSPropertyOp31
 70
     1
102
RTVSPropertyOp32
 70
     1
102
RTVSPropertyOp33
 70
     1
102
RTVSPropertyOp34
 70
     1
102
RTVSPropertyOp35
 70
     1
102
RTVSPropertyOp36
 70
     1
102
RTVSPropertyOp37
 70
     1
102
RTVSPropertyOp38
 70
     1
102
RTVSPropertyOp39
 70
     1
102
RTVSPropertyOp40
 70
     1
102
RTVSPropertyOp41
 70
     1
102
RTVSPropertyOp42
 70
     1
102
RTVSPropertyOp43
 70
     1
102
RTVSPropertyOp44
 70
     1
102
RTVSPropertyOp45
 70
     1
102
RTVSPropertyOp46
 70
     1
102
RTVSPropertyOp47
 70
     1
102
RTVSPropertyOp48
 70
     1
102
RTVSPropertyOp49
 70
     1
102
RTVSPropertyOp50
 70
     1
102
RTVSPropertyOp51
 70
     0
102
RTVSPropertyOp52
 70
     0
102
RTVSPropertyOp53
 70
     1
102
RTVSPropertyOp54
 70
     1
102
RTVSPropertyOp55
 70
     1
102
RTVSPropertyOp56
 70
     1
102
RTVSPropertyOp57
 70
     1
102
RTVSPost2010Prop28
280
     0
102
RTVSPost2010PropOp28
 70
     1
102
RTVSPost2010Prop29
280
     1
102
RTVSPost2010PropOp29
 70
     1
102
RTVSPost2010Prop30
280
     1
102
RTVSPost2010PropOp30
 70
     1
102
RTVSPost2010Prop31
280
     0
102
RTVSPost2010PropOp31
 70
     1
102
RTVSPost2010Prop32
280
     0
102
RTVSPost2010PropOp32
 70
     1
102
RTVSPost2010Prop33
280
     0
102
RTVSPost2010PropOp33
 70
     1
102
RTVSPost2010Prop34
280
     0
102
RTVSPost2010PropOp34
 70
     1
102
RTVSPost2010Prop35
280
     0
102
RTVSPost2010PropOp35
 70
     1
102
RTVSPost2010Prop36
280
     0
102
RTVSPost2010PropOp36
 70
     1
102
RTVSPost2010Prop37
 90
       50
102
RTVSPost2010PropOp37
 70
     1
102
RTVSPost2010Prop38
140
0.0
102
RTVSPost2010PropOp38
 70
     1
102
RTVSPost2010Prop39
140
1.0
102
RTVSPost2010PropOp39
 70
     1
102
RTVSPost2010Prop40
 90
        0
102
RTVSPost2010PropOp40
 70
     1
102
RTVSPost2010Prop41ColorIndex
 90
       18
102
RTVSPost2010Prop41ColorRGB
 90
        0
102
RTVSPost2010PropOp41
 70
     1
102
RTVSPost2010Prop42
 90
       50
102
RTVSPost2010PropOp42
 70
     1
102
RTVSPost2010Prop43
 90
        3
102
RTVSPost2010PropOp43
 70
     1
102
RTVSPost2010Prop44ColorIndex
 90
        5
102
RTVSPost2010Prop44ColorRGB
 90
      255
102
RTVSPost2010PropOp44
 70
     1
102
RTVSPost2010Prop45
280
     0
102
RTVSPost2010PropOp45
 70
     1
102
RTVSPost2010Prop46
 90
       50
102
RTVSPost2010PropOp46
 70
     1
102
RTVSPost2010Prop47
 90
       50
102
RTVSPost2010PropOp47
 70
     1
102
RTVSPost2010Prop48
 90
       50
102
RTVSPost2010PropOp48
 70
     1
102
RTVSPost2010Prop49
280
     0
102
RTVSPost2010PropOp49
 70
     1
102
RTVSPost2010Prop50
 90
       50
102
RTVSPost2010PropOp50
 70
     1
102
RTVSPost2010Prop51ColorIndex
 90
      256
102
RTVSPost2010Prop51ColorRGB
 90
-16777216
102
RTVSPost2010PropOp51
 70
     0
102
RTVSPost2010Prop52
140
1.0
102
RTVSPost2010PropOp52
 70
     0
102
RTVSPost2010Prop53
 90
        2
102
RTVSPost2010PropOp53
 70
     1
102
RTVSPost2010Prop54
  1
strokes_ogs.tif
102
RTVSPost2010PropOp54
 70
     1
102
RTVSPost2010Prop55
280
     0
102
RTVSPost2010PropOp55
 70
     1
102
RTVSPost2010Prop56
140
1.0
102
RTVSPost2010PropOp56
 70
     1
102
RTVSPost2010Prop57
140
1.0
102
RTVSPost2010PropOp57
 70
     1
  0
XRECORD
  5
2A1
102
{ACAD_REACTORS
330
2A0
102
}
330
2A0
100
AcDbXrecord
280
     1
102
RTVSPropertyOp0
 70
     1
102
RTVSPropertyOp1
 70
     1
102
RTVSPropertyOp2
 70
     1
102
RTVSPropertyOp3
 70
     1
102
RTVSPropertyOp4
 70
     1
102
RTVSPropertyOp5
 70
     1
102
RTVSPropertyOp6
 70
     1
102
RTVSPropertyOp7
 70
     1
102
RTVSPropertyOp8
 70
     1
102
RTVSPropertyOp9
 70
     1
102
RTVSPropertyOp10
 70
     1
102
RTVSPropertyOp11
 70
     1
102
RTVSPropertyOp12
 70
     1
102
RTVSPropertyOp13
 70
     1
102
RTVSPropertyOp14
 70
     1
102
RTVSPropertyOp15
 70
     1
102
RTVSPropertyOp16
 70
     1
102
RTVSPropertyOp17
 70
     1
102
RTVSPropertyOp18
 70
     1
102
RTVSPropertyOp19
 70
     1
102
RTVSPropertyOp20
 70
     1
102
RTVSPropertyOp21
 70
     1
102
RTVSPropertyOp22
 70
     1
102
RTVSPropertyOp23
 70
     1
102
RTVSPropertyOp24
 70
     1
102
RTVSPropertyOp25
 70
     1
102
RTVSPropertyOp26
 70
     1
102
RTVSPropertyOp27
 70
     1
102
RTVSPropertyOp28
 70
     1
102
RTVSPropertyOp29
 70
     1
102
RTVSPropertyOp30
 70
     1
102
RTVSPropertyOp31
 70
     1
102
RTVSPropertyOp32
 70
     1
102
RTVSPropertyOp33
 70
     1
102
RTVSPropertyOp34
 70
     1
102
RTVSPropertyOp35
 70
     1
102
RTVSPropertyOp36
 70
     1
102
RTVSPropertyOp37
 70
     1
102
RTVSPropertyOp38
 70
     1
102
RTVSPropertyOp39
 70
     1
102
RTVSPropertyOp40
 70
     1
102
RTVSPropertyOp41
 70
     1
102
RTVSPropertyOp42
 70
     1
102
RTVSPropertyOp43
 70
     1
102
RTVSPropertyOp44
 70
     1
102
RTVSPropertyOp45
 70
     1
102
RTVSPropertyOp46
 70
     1
102
RTVSPropertyOp47
 70
     1
102
RTVSPropertyOp48
 70
     1
102
RTVSPropertyOp49
 70
     1
102
RTVSPropertyOp50
 70
     1
102
RTVSPropertyOp51
 70
     0
102
RTVSPropertyOp52
 70
     0
102
RTVSPropertyOp53
 70
     1
102
RTVSPropertyOp54
 70
     1
102
RTVSPropertyOp55
 70
     1
102
RTVSPropertyOp56
 70
     1
102
RTVSPropertyOp57
 70
     1
102
RTVSPost2010Prop28
280
     0
102
RTVSPost2010PropOp28
 70
     1
102
RTVSPost2010Prop29
280
     1
102
RTVSPost2010PropOp29
 70
     1
102
RTVSPost2010Prop30
280
     1
102
RTVSPost2010PropOp30
 70
     1
102
RTVSPost2010Prop31
280
     0
102
RTVSPost2010PropOp31
 70
     1
102
RTVSPost2010Prop32
280
     0
102
RTVSPost2010PropOp32
 70
     1
102
RTVSPost2010Prop33
280
     0
102
RTVSPost2010PropOp33
 70
     1
102
RTVSPost2010Prop34
280
     0
102
RTVSPost2010PropOp34
 70
     1
102
RTVSPost2010Prop35
280
     0
102
RTVSPost2010PropOp35
 70
     1
102
RTVSPost2010Prop36
280
     0
102
RTVSPost2010PropOp36
 70
     1
102
RTVSPost2010Prop37
 90
       50
102
RTVSPost2010PropOp37
 70
     1
102
RTVSPost2010Prop38
140
0.0
102
RTVSPost2010PropOp38
 70
     1
102
RTVSPost2010Prop39
140
1.0
102
RTVSPost2010PropOp39
 70
     1
102
RTVSPost2010Prop40
 90
        0
102
RTVSPost2010PropOp40
 70
     1
102
RTVSPost2010Prop41ColorIndex
 90
       18
102
RTVSPost2010Prop41ColorRGB
 90
        0
102
RTVSPost2010PropOp41
 70
     1
102
RTVSPost2010Prop42
 90
       50
102
RTVSPost2010PropOp42
 70
     1
102
RTVSPost2010Prop43
 90
        3
102
RTVSPost2010PropOp43
 70
     1
102
RTVSPost2010Prop44ColorIndex
 90
        5
102
RTVSPost2010Prop44ColorRGB
 90
      255
102
RTVSPost2010PropOp44
 70
     1
102
RTVSPost2010Prop45
280
     0
102
RTVSPost2010PropOp45
 70
     1
102
RTVSPost2010Prop46
 90
       50
102
RTVSPost2010PropOp46
 70
     1
102
RTVSPost2010Prop47
 90
       50
102
RTVSPost2010PropOp47
 70
     1
102
RTVSPost2010Prop48
 90
       50
102
RTVSPost2010PropOp48
 70
     1
102
RTVSPost2010Prop49
280
     0
102
RTVSPost2010PropOp49
 70
     1
102
RTVSPost2010Prop50
 90
       50
102
RTVSPost2010PropOp50
 70
     1
102
RTVSPost2010Prop51ColorIndex
 90
      256
102
RTVSPost2010Prop51ColorRGB
 90
-16777216
102
RTVSPost2010PropOp51
 70
     0
102
RTVSPost2010Prop52
140
1.0
102
RTVSPost2010PropOp52
 70
     0
102
RTVSPost2010Prop53
 90
        2
102
RTVSPost2010PropOp53
 70
     1
102
RTVSPost2010Prop54
  1
strokes_ogs.tif
102
RTVSPost2010PropOp54
 70
     1
102
RTVSPost2010Prop55
280
     0
102
RTVSPost2010PropOp55
 70
     1
102
RTVSPost2010Prop56
140
1.0
102
RTVSPost2010PropOp56
 70
     1
102
RTVSPost2010Prop57
140
1.0
102
RTVSPost2010PropOp57
 70
     1
  0
XRECORD
  5
2A3
102
{ACAD_REACTORS
330
2A2
102
}
330
2A2
100
AcDbXrecord
280
     1
102
RTVSPropertyOp0
 70
     1
102
RTVSPropertyOp1
 70
     1
102
RTVSPropertyOp2
 70
     1
102
RTVSPropertyOp3
 70
     1
102
RTVSPropertyOp4
 70
     1
102
RTVSPropertyOp5
 70
     1
102
RTVSPropertyOp6
 70
     1
102
RTVSPropertyOp7
 70
     1
102
RTVSPropertyOp8
 70
     1
102
RTVSPropertyOp9
 70
     1
102
RTVSPropertyOp10
 70
     1
102
RTVSPropertyOp11
 70
     1
102
RTVSPropertyOp12
 70
     1
102
RTVSPropertyOp13
 70
     1
102
RTVSPropertyOp14
 70
     1
102
RTVSPropertyOp15
 70
     1
102
RTVSPropertyOp16
 70
     1
102
RTVSPropertyOp17
 70
     1
102
RTVSPropertyOp18
 70
     1
102
RTVSPropertyOp19
 70
     1
102
RTVSPropertyOp20
 70
     1
102
RTVSPropertyOp21
 70
     1
102
RTVSPropertyOp22
 70
     1
102
RTVSPropertyOp23
 70
     1
102
RTVSPropertyOp24
 70
     1
102
RTVSPropertyOp25
 70
     1
102
RTVSPropertyOp26
 70
     1
102
RTVSPropertyOp27
 70
     1
102
RTVSPropertyOp28
 70
     1
102
RTVSPropertyOp29
 70
     1
102
RTVSPropertyOp30
 70
     1
102
RTVSPropertyOp31
 70
     1
102
RTVSPropertyOp32
 70
     1
102
RTVSPropertyOp33
 70
     1
102
RTVSPropertyOp34
 70
     1
102
RTVSPropertyOp35
 70
     1
102
RTVSPropertyOp36
 70
     1
102
RTVSPropertyOp37
 70
     1
102
RTVSPropertyOp38
 70
     1
102
RTVSPropertyOp39
 70
     1
102
RTVSPropertyOp40
 70
     1
102
RTVSPropertyOp41
 70
     1
102
RTVSPropertyOp42
 70
     1
102
RTVSPropertyOp43
 70
     1
102
RTVSPropertyOp44
 70
     1
102
RTVSPropertyOp45
 70
     1
102
RTVSPropertyOp46
 70
     1
102
RTVSPropertyOp47
 70
     1
102
RTVSPropertyOp48
 70
     1
102
RTVSPropertyOp49
 70
     1
102
RTVSPropertyOp50
 70
     1
102
RTVSPropertyOp51
 70
     0
102
RTVSPropertyOp52
 70
     0
102
RTVSPropertyOp53
 70
     1
102
RTVSPropertyOp54
 70
     1
102
RTVSPropertyOp55
 70
     1
102
RTVSPropertyOp56
 70
     1
102
RTVSPropertyOp57
 70
     1
102
RTVSPost2010Prop28
280
     0
102
RTVSPost2010PropOp28
 70
     1
102
RTVSPost2010Prop29
280
     1
102
RTVSPost2010PropOp29
 70
     1
102
RTVSPost2010Prop30
280
     1
102
RTVSPost2010PropOp30
 70
     1
102
RTVSPost2010Prop31
280
     0
102
RTVSPost2010PropOp31
 70
     1
102
RTVSPost2010Prop32
280
     0
102
RTVSPost2010PropOp32
 70
     1
102
RTVSPost2010Prop33
280
     0
102
RTVSPost2010PropOp33
 70
     1
102
RTVSPost2010Prop34
280
     0
102
RTVSPost2010PropOp34
 70
     1
102
RTVSPost2010Prop35
280
     0
102
RTVSPost2010PropOp35
 70
     1
102
RTVSPost2010Prop36
280
     0
102
RTVSPost2010PropOp36
 70
     1
102
RTVSPost2010Prop37
 90
       50
102
RTVSPost2010PropOp37
 70
     1
102
RTVSPost2010Prop38
140
0.0
102
RTVSPost2010PropOp38
 70
     1
102
RTVSPost2010Prop39
140
1.0
102
RTVSPost2010PropOp39
 70
     1
102
RTVSPost2010Prop40
 90
        0
102
RTVSPost2010PropOp40
 70
     1
102
RTVSPost2010Prop41ColorIndex
 90
       18
102
RTVSPost2010Prop41ColorRGB
 90
        0
102
RTVSPost2010PropOp41
 70
     1
102
RTVSPost2010Prop42
 90
       50
102
RTVSPost2010PropOp42
 70
     1
102
RTVSPost2010Prop43
 90
        3
102
RTVSPost2010PropOp43
 70
     1
102
RTVSPost2010Prop44ColorIndex
 90
        5
102
RTVSPost2010Prop44ColorRGB
 90
      255
102
RTVSPost2010PropOp44
 70
     1
102
RTVSPost2010Prop45
280
     0
102
RTVSPost2010PropOp45
 70
     1
102
RTVSPost2010Prop46
 90
       50
102
RTVSPost2010PropOp46
 70
     1
102
RTVSPost2010Prop47
 90
       50
102
RTVSPost2010PropOp47
 70
     1
102
RTVSPost2010Prop48
 90
       50
102
RTVSPost2010PropOp48
 70
     1
102
RTVSPost2010Prop49
280
     0
102
RTVSPost2010PropOp49
 70
     1
102
RTVSPost2010Prop50
 90
       50
102
RTVSPost2010PropOp50
 70
     1
102
RTVSPost2010Prop51ColorIndex
 90
      256
102
RTVSPost2010Prop51ColorRGB
 90
-16777216
102
RTVSPost2010PropOp51
 70
     0
102
RTVSPost2010Prop52
140
1.0
102
RTVSPost2010PropOp52
 70
     0
102
RTVSPost2010Prop53
 90
        2
102
RTVSPost2010PropOp53
 70
     1
102
RTVSPost2010Prop54
  1
strokes_ogs.tif
102
RTVSPost2010PropOp54
 70
     1
102
RTVSPost2010Prop55
280
     0
102
RTVSPost2010PropOp55
 70
     1
102
RTVSPost2010Prop56
140
1.0
102
RTVSPost2010PropOp56
 70
     1
102
RTVSPost2010Prop57
140
1.0
102
RTVSPost2010PropOp57
 70
     1
  0
XRECORD
  5
2A5
102
{ACAD_REACTORS
330
2A4
102
}
330
2A4
100
AcDbXrecord
280
     1
102
RTVSPropertyOp0
 70
     0
102
RTVSPropertyOp1
 70
     0
102
RTVSPropertyOp2
 70
     0
102
RTVSPropertyOp3
 70
     0
102
RTVSPropertyOp4
 70
     0
102
RTVSPropertyOp5
 70
     0
102
RTVSPropertyOp6
 70
     0
102
RTVSPropertyOp7
 70
     0
102
RTVSPropertyOp8
 70
     0
102
RTVSPropertyOp9
 70
     0
102
RTVSPropertyOp10
 70
     0
102
RTVSPropertyOp11
 70
     0
102
RTVSPropertyOp12
 70
     0
102
RTVSPropertyOp13
 70
     0
102
RTVSPropertyOp14
 70
     2
102
RTVSPropertyOp15
 70
     0
102
RTVSPropertyOp16
 70
     0
102
RTVSPropertyOp17
 70
     0
102
RTVSPropertyOp18
 70
     0
102
RTVSPropertyOp19
 70
     0
102
RTVSPropertyOp20
 70
     0
102
RTVSPropertyOp21
 70
     0
102
RTVSPropertyOp22
 70
     0
102
RTVSPropertyOp23
 70
     0
102
RTVSPropertyOp24
 70
     0
102
RTVSPropertyOp25
 70
     0
102
RTVSPropertyOp26
 70
     0
102
RTVSPropertyOp27
 70
     0
102
RTVSPropertyOp28
 70
     0
102
RTVSPropertyOp29
 70
     0
102
RTVSPropertyOp30
 70
     0
102
RTVSPropertyOp31
 70
     0
102
RTVSPropertyOp32
 70
     0
102
RTVSPropertyOp33
 70
     0
102
RTVSPropertyOp34
 70
     0
102
RTVSPropertyOp35
 70
     0
102
RTVSPropertyOp36
 70
     0
102
RTVSPropertyOp37
 70
     0
102
RTVSPropertyOp38
 70
     0
102
RTVSPropertyOp39
 70
     0
102
RTVSPropertyOp40
 70
     0
102
RTVSPropertyOp41
 70
     0
102
RTVSPropertyOp42
 70
     0
102
RTVSPropertyOp43
 70
     0
102
RTVSPropertyOp44
 70
     0
102
RTVSPropertyOp45
 70
     0
102
RTVSPropertyOp46
 70
     0
102
RTVSPropertyOp47
 70
     0
102
RTVSPropertyOp48
 70
     0
102
RTVSPropertyOp49
 70
     0
102
RTVSPropertyOp50
 70
     0
102
RTVSPropertyOp51
 70
     0
102
RTVSPropertyOp52
 70
     0
102
RTVSPropertyOp53
 70
     0
102
RTVSPropertyOp54
 70
     0
102
RTVSPropertyOp55
 70
     0
102
RTVSPropertyOp56
 70
     0
102
RTVSPropertyOp57
 70
     0
102
RTVSPost2010Prop28
280
     0
102
RTVSPost2010PropOp28
 70
     0
102
RTVSPost2010Prop29
280
     1
102
RTVSPost2010PropOp29
 70
     0
102
RTVSPost2010Prop30
280
     1
102
RTVSPost2010PropOp30
 70
     0
102
RTVSPost2010Prop31
280
     0
102
RTVSPost2010PropOp31
 70
     0
102
RTVSPost2010Prop32
280
     0
102
RTVSPost2010PropOp32
 70
     0
102
RTVSPost2010Prop33
280
     0
102
RTVSPost2010PropOp33
 70
     0
102
RTVSPost2010Prop34
280
     0
102
RTVSPost2010PropOp34
 70
     0
102
RTVSPost2010Prop35
280
     0
102
RTVSPost2010PropOp35
 70
     0
102
RTVSPost2010Prop36
280
     0
102
RTVSPost2010PropOp36
 70
     0
102
RTVSPost2010Prop37
 90
       50
102
RTVSPost2010PropOp37
 70
     0
102
RTVSPost2010Prop38
140
0.0
102
RTVSPost2010PropOp38
 70
     0
102
RTVSPost2010Prop39
140
1.0
102
RTVSPost2010PropOp39
 70
     0
102
RTVSPost2010Prop40
 90
        0
102
RTVSPost2010PropOp40
 70
     0
102
RTVSPost2010Prop41ColorIndex
 90
       18
102
RTVSPost2010Prop41ColorRGB
 90
        0
102
RTVSPost2010PropOp41
 70
     0
102
RTVSPost2010Prop42
 90
       50
102
RTVSPost2010PropOp42
 70
     0
102
RTVSPost2010Prop43
 90
        3
102
RTVSPost2010PropOp43
 70
     0
102
RTVSPost2010Prop44ColorIndex
 90
        5
102
RTVSPost2010Prop44ColorRGB
 90
      255
102
RTVSPost2010PropOp44
 70
     0
102
RTVSPost2010Prop45
280
     0
102
RTVSPost2010PropOp45
 70
     0
102
RTVSPost2010Prop46
 90
       50
102
RTVSPost2010PropOp46
 70
     0
102
RTVSPost2010Prop47
 90
       50
102
RTVSPost2010PropOp47
 70
     0
102
RTVSPost2010Prop48
 90
       50
102
RTVSPost2010PropOp48
 70
     0
102
RTVSPost2010Prop49
280
     0
102
RTVSPost2010PropOp49
 70
     0
102
RTVSPost2010Prop50
 90
       50
102
RTVSPost2010PropOp50
 70
     0
102
RTVSPost2010Prop51ColorIndex
 90
      256
102
RTVSPost2010Prop51ColorRGB
 90
-16777216
102
RTVSPost2010PropOp51
 70
     0
102
RTVSPost2010Prop52
140
1.0
102
RTVSPost2010PropOp52
 70
     0
102
RTVSPost2010Prop53
 90
        2
102
RTVSPost2010PropOp53
 70
     0
102
RTVSPost2010Prop54
  1
strokes_ogs.tif
102
RTVSPost2010PropOp54
 70
     0
102
RTVSPost2010Prop55
280
     0
102
RTVSPost2010PropOp55
 70
     0
102
RTVSPost2010Prop56
140
1.0
102
RTVSPost2010PropOp56
 70
     0
102
RTVSPost2010Prop57
140
1.0
102
RTVSPost2010PropOp57
 70
     0
  0
XRECORD
  5
2A7
102
{ACAD_REACTORS
330
2A6
102
}
330
2A6
100
AcDbXrecord
280
     1
102
RTVSPropertyOp0
 70
     1
102
RTVSPropertyOp1
 70
     1
102
RTVSPropertyOp2
 70
     1
102
RTVSPropertyOp3
 70
     1
102
RTVSPropertyOp4
 70
     1
102
RTVSPropertyOp5
 70
     1
102
RTVSPropertyOp6
 70
     1
102
RTVSPropertyOp7
 70
     1
102
RTVSPropertyOp8
 70
     1
102
RTVSPropertyOp9
 70
     1
102
RTVSPropertyOp10
 70
     1
102
RTVSPropertyOp11
 70
     1
102
RTVSPropertyOp12
 70
     1
102
RTVSPropertyOp13
 70
     1
102
RTVSPropertyOp14
 70
     1
102
RTVSPropertyOp15
 70
     1
102
RTVSPropertyOp16
 70
     1
102
RTVSPropertyOp17
 70
     1
102
RTVSPropertyOp18
 70
     1
102
RTVSPropertyOp19
 70
     1
102
RTVSPropertyOp20
 70
     1
102
RTVSPropertyOp21
 70
     1
102
RTVSPropertyOp22
 70
     1
102
RTVSPropertyOp23
 70
     1
102
RTVSPropertyOp24
 70
     1
102
RTVSPropertyOp25
 70
     1
102
RTVSPropertyOp26
 70
     1
102
RTVSPropertyOp27
 70
     1
102
RTVSPropertyOp28
 70
     1
102
RTVSPropertyOp29
 70
     1
102
RTVSPropertyOp30
 70
     1
102
RTVSPropertyOp31
 70
     1
102
RTVSPropertyOp32
 70
     1
102
RTVSPropertyOp33
 70
     1
102
RTVSPropertyOp34
 70
     1
102
RTVSPropertyOp35
 70
     1
102
RTVSPropertyOp36
 70
     1
102
RTVSPropertyOp37
 70
     1
102
RTVSPropertyOp38
 70
     1
102
RTVSPropertyOp39
 70
     1
102
RTVSPropertyOp40
 70
     1
102
RTVSPropertyOp41
 70
     1
102
RTVSPropertyOp42
 70
     1
102
RTVSPropertyOp43
 70
     1
102
RTVSPropertyOp44
 70
     1
102
RTVSPropertyOp45
 70
     1
102
RTVSPropertyOp46
 70
     1
102
RTVSPropertyOp47
 70
     1
102
RTVSPropertyOp48
 70
     1
102
RTVSPropertyOp49
 70
     1
102
RTVSPropertyOp50
 70
     1
102
RTVSPropertyOp51
 70
     0
102
RTVSPropertyOp52
 70
     0
102
RTVSPropertyOp53
 70
     1
102
RTVSPropertyOp54
 70
     1
102
RTVSPropertyOp55
 70
     1
102
RTVSPropertyOp56
 70
     1
102
RTVSPropertyOp57
 70
     1
102
RTVSPost2010Prop28
280
     0
102
RTVSPost2010PropOp28
 70
     1
102
RTVSPost2010Prop29
280
     1
102
RTVSPost2010PropOp29
 70
     1
102
RTVSPost2010Prop30
280
     1
102
RTVSPost2010PropOp30
 70
     1
102
RTVSPost2010Prop31
280
     0
102
RTVSPost2010PropOp31
 70
     1
102
RTVSPost2010Prop32
280
     0
102
RTVSPost2010PropOp32
 70
     1
102
RTVSPost2010Prop33
280
     0
102
RTVSPost2010PropOp33
 70
     1
102
RTVSPost2010Prop34
280
     0
102
RTVSPost2010PropOp34
 70
     1
102
RTVSPost2010Prop35
280
     0
102
RTVSPost2010PropOp35
 70
     1
102
RTVSPost2010Prop36
280
     0
102
RTVSPost2010PropOp36
 70
     1
102
RTVSPost2010Prop37
 90
       50
102
RTVSPost2010PropOp37
 70
     1
102
RTVSPost2010Prop38
140
0.0
102
RTVSPost2010PropOp38
 70
     1
102
RTVSPost2010Prop39
140
1.0
102
RTVSPost2010PropOp39
 70
     1
102
RTVSPost2010Prop40
 90
        0
102
RTVSPost2010PropOp40
 70
     1
102
RTVSPost2010Prop41ColorIndex
 90
       18
102
RTVSPost2010Prop41ColorRGB
 90
        0
102
RTVSPost2010PropOp41
 70
     1
102
RTVSPost2010Prop42
 90
       50
102
RTVSPost2010PropOp42
 70
     1
102
RTVSPost2010Prop43
 90
        3
102
RTVSPost2010PropOp43
 70
     1
102
RTVSPost2010Prop44ColorIndex
 90
        5
102
RTVSPost2010Prop44ColorRGB
 90
      255
102
RTVSPost2010PropOp44
 70
     1
102
RTVSPost2010Prop45
280
     0
102
RTVSPost2010PropOp45
 70
     1
102
RTVSPost2010Prop46
 90
       50
102
RTVSPost2010PropOp46
 70
     1
102
RTVSPost2010Prop47
 90
       50
102
RTVSPost2010PropOp47
 70
     1
102
RTVSPost2010Prop48
 90
       50
102
RTVSPost2010PropOp48
 70
     1
102
RTVSPost2010Prop49
280
     0
102
RTVSPost2010PropOp49
 70
     1
102
RTVSPost2010Prop50
 90
       50
102
RTVSPost2010PropOp50
 70
     1
102
RTVSPost2010Prop51ColorIndex
 90
      256
102
RTVSPost2010Prop51ColorRGB
 90
-16777216
102
RTVSPost2010PropOp51
 70
     0
102
RTVSPost2010Prop52
140
1.0
102
RTVSPost2010PropOp52
 70
     0
102
RTVSPost2010Prop53
 90
        2
102
RTVSPost2010PropOp53
 70
     1
102
RTVSPost2010Prop54
  1
strokes_ogs.tif
102
RTVSPost2010PropOp54
 70
     1
102
RTVSPost2010Prop55
280
     0
102
RTVSPost2010PropOp55
 70
     1
102
RTVSPost2010Prop56
140
1.0
102
RTVSPost2010PropOp56
 70
     1
102
RTVSPost2010Prop57
140
1.0
102
RTVSPost2010PropOp57
 70
     1
  0
XRECORD
  5
2A9
102
{ACAD_REACTORS
330
2A8
102
}
330
2A8
100
AcDbXrecord
280
     1
102
RTVSPropertyOp0
 70
     1
102
RTVSPropertyOp1
 70
     1
102
RTVSPropertyOp2
 70
     1
102
RTVSPropertyOp3
 70
     1
102
RTVSPropertyOp4
 70
     1
102
RTVSPropertyOp5
 70
     1
102
RTVSPropertyOp6
 70
     1
102
RTVSPropertyOp7
 70
     1
102
RTVSPropertyOp8
 70
     1
102
RTVSPropertyOp9
 70
     1
102
RTVSPropertyOp10
 70
     1
102
RTVSPropertyOp11
 70
     1
102
RTVSPropertyOp12
 70
     1
102
RTVSPropertyOp13
 70
     1
102
RTVSPropertyOp14
 70
     1
102
RTVSPropertyOp15
 70
     1
102
RTVSPropertyOp16
 70
     1
102
RTVSPropertyOp17
 70
     1
102
RTVSPropertyOp18
 70
     1
102
RTVSPropertyOp19
 70
     1
102
RTVSPropertyOp20
 70
     1
102
RTVSPropertyOp21
 70
     1
102
RTVSPropertyOp22
 70
     1
102
RTVSPropertyOp23
 70
     1
102
RTVSPropertyOp24
 70
     1
102
RTVSPropertyOp25
 70
     1
102
RTVSPropertyOp26
 70
     1
102
RTVSPropertyOp27
 70
     1
102
RTVSPropertyOp28
 70
     1
102
RTVSPropertyOp29
 70
     1
102
RTVSPropertyOp30
 70
     1
102
RTVSPropertyOp31
 70
     1
102
RTVSPropertyOp32
 70
     1
102
RTVSPropertyOp33
 70
     1
102
RTVSPropertyOp34
 70
     1
102
RTVSPropertyOp35
 70
     1
102
RTVSPropertyOp36
 70
     1
102
RTVSPropertyOp37
 70
     1
102
RTVSPropertyOp38
 70
     1
102
RTVSPropertyOp39
 70
     1
102
RTVSPropertyOp40
 70
     1
102
RTVSPropertyOp41
 70
     1
102
RTVSPropertyOp42
 70
     1
102
RTVSPropertyOp43
 70
     1
102
RTVSPropertyOp44
 70
     1
102
RTVSPropertyOp45
 70
     1
102
RTVSPropertyOp46
 70
     1
102
RTVSPropertyOp47
 70
     1
102
RTVSPropertyOp48
 70
     1
102
RTVSPropertyOp49
 70
     1
102
RTVSPropertyOp50
 70
     1
102
RTVSPropertyOp51
 70
     0
102
RTVSPropertyOp52
 70
     0
102
RTVSPropertyOp53
 70
     1
102
RTVSPropertyOp54
 70
     1
102
RTVSPropertyOp55
 70
     1
102
RTVSPropertyOp56
 70
     1
102
RTVSPropertyOp57
 70
     1
102
RTVSPost2010Prop28
280
     0
102
RTVSPost2010PropOp28
 70
     1
102
RTVSPost2010Prop29
280
     1
102
RTVSPost2010PropOp29
 70
     1
102
RTVSPost2010Prop30
280
     1
102
RTVSPost2010PropOp30
 70
     1
102
RTVSPost2010Prop31
280
     0
102
RTVSPost2010PropOp31
 70
     1
102
RTVSPost2010Prop32
280
     0
102
RTVSPost2010PropOp32
 70
     1
102
RTVSPost2010Prop33
280
     0
102
RTVSPost2010PropOp33
 70
     1
102
RTVSPost2010Prop34
280
     0
102
RTVSPost2010PropOp34
 70
     1
102
RTVSPost2010Prop35
280
     0
102
RTVSPost2010PropOp35
 70
     1
102
RTVSPost2010Prop36
280
     0
102
RTVSPost2010PropOp36
 70
     1
102
RTVSPost2010Prop37
 90
       50
102
RTVSPost2010PropOp37
 70
     1
102
RTVSPost2010Prop38
140
0.0
102
RTVSPost2010PropOp38
 70
     1
102
RTVSPost2010Prop39
140
1.0
102
RTVSPost2010PropOp39
 70
     1
102
RTVSPost2010Prop40
 90
        0
102
RTVSPost2010PropOp40
 70
     1
102
RTVSPost2010Prop41ColorIndex
 90
       18
102
RTVSPost2010Prop41ColorRGB
 90
        0
102
RTVSPost2010PropOp41
 70
     1
102
RTVSPost2010Prop42
 90
       50
102
RTVSPost2010PropOp42
 70
     1
102
RTVSPost2010Prop43
 90
        3
102
RTVSPost2010PropOp43
 70
     1
102
RTVSPost2010Prop44ColorIndex
 90
        5
102
RTVSPost2010Prop44ColorRGB
 90
      255
102
RTVSPost2010PropOp44
 70
     1
102
RTVSPost2010Prop45
280
     0
102
RTVSPost2010PropOp45
 70
     1
102
RTVSPost2010Prop46
 90
       50
102
RTVSPost2010PropOp46
 70
     1
102
RTVSPost2010Prop47
 90
       50
102
RTVSPost2010PropOp47
 70
     1
102
RTVSPost2010Prop48
 90
       50
102
RTVSPost2010PropOp48
 70
     1
102
RTVSPost2010Prop49
280
     0
102
RTVSPost2010PropOp49
 70
     1
102
RTVSPost2010Prop50
 90
       50
102
RTVSPost2010PropOp50
 70
     1
102
RTVSPost2010Prop51ColorIndex
 90
      256
102
RTVSPost2010Prop51ColorRGB
 90
-16777216
102
RTVSPost2010PropOp51
 70
     0
102
RTVSPost2010Prop52
140
1.0
102
RTVSPost2010PropOp52
 70
     0
102
RTVSPost2010Prop53
 90
        2
102
RTVSPost2010PropOp53
 70
     1
102
RTVSPost2010Prop54
  1
strokes_ogs.tif
102
RTVSPost2010PropOp54
 70
     1
102
RTVSPost2010Prop55
280
     0
102
RTVSPost2010PropOp55
 70
     1
102
RTVSPost2010Prop56
140
1.0
102
RTVSPost2010PropOp56
 70
     1
102
RTVSPost2010Prop57
140
1.0
102
RTVSPost2010PropOp57
 70
     1
  0
XRECORD
  5
2AB
102
{ACAD_REACTORS
330
2AA
102
}
330
2AA
100
AcDbXrecord
280
     1
102
RTVSPropertyOp0
 70
     1
102
RTVSPropertyOp1
 70
     1
102
RTVSPropertyOp2
 70
     1
102
RTVSPropertyOp3
 70
     1
102
RTVSPropertyOp4
 70
     1
102
RTVSPropertyOp5
 70
     1
102
RTVSPropertyOp6
 70
     1
102
RTVSPropertyOp7
 70
     1
102
RTVSPropertyOp8
 70
     1
102
RTVSPropertyOp9
 70
     1
102
RTVSPropertyOp10
 70
     1
102
RTVSPropertyOp11
 70
     1
102
RTVSPropertyOp12
 70
     1
102
RTVSPropertyOp13
 70
     1
102
RTVSPropertyOp14
 70
     1
102
RTVSPropertyOp15
 70
     1
102
RTVSPropertyOp16
 70
     1
102
RTVSPropertyOp17
 70
     1
102
RTVSPropertyOp18
 70
     1
102
RTVSPropertyOp19
 70
     1
102
RTVSPropertyOp20
 70
     1
102
RTVSPropertyOp21
 70
     1
102
RTVSPropertyOp22
 70
     1
102
RTVSPropertyOp23
 70
     1
102
RTVSPropertyOp24
 70
     1
102
RTVSPropertyOp25
 70
     1
102
RTVSPropertyOp26
 70
     1
102
RTVSPropertyOp27
 70
     1
102
RTVSPropertyOp28
 70
     1
102
RTVSPropertyOp29
 70
     1
102
RTVSPropertyOp30
 70
     1
102
RTVSPropertyOp31
 70
     1
102
RTVSPropertyOp32
 70
     1
102
RTVSPropertyOp33
 70
     1
102
RTVSPropertyOp34
 70
     1
102
RTVSPropertyOp35
 70
     1
102
RTVSPropertyOp36
 70
     1
102
RTVSPropertyOp37
 70
     1
102
RTVSPropertyOp38
 70
     1
102
RTVSPropertyOp39
 70
     1
102
RTVSPropertyOp40
 70
     1
102
RTVSPropertyOp41
 70
     1
102
RTVSPropertyOp42
 70
     1
102
RTVSPropertyOp43
 70
     1
102
RTVSPropertyOp44
 70
     1
102
RTVSPropertyOp45
 70
     1
102
RTVSPropertyOp46
 70
     1
102
RTVSPropertyOp47
 70
     1
102
RTVSPropertyOp48
 70
     1
102
RTVSPropertyOp49
 70
     1
102
RTVSPropertyOp50
 70
     1
102
RTVSPropertyOp51
 70
     0
102
RTVSPropertyOp52
 70
     0
102
RTVSPropertyOp53
 70
     1
102
RTVSPropertyOp54
 70
     1
102
RTVSPropertyOp55
 70
     1
102
RTVSPropertyOp56
 70
     1
102
RTVSPropertyOp57
 70
     1
102
RTVSPost2010Prop28
280
     0
102
RTVSPost2010PropOp28
 70
     1
102
RTVSPost2010Prop29
280
     1
102
RTVSPost2010PropOp29
 70
     1
102
RTVSPost2010Prop30
280
     1
102
RTVSPost2010PropOp30
 70
     1
102
RTVSPost2010Prop31
280
     0
102
RTVSPost2010PropOp31
 70
     1
102
RTVSPost2010Prop32
280
     0
102
RTVSPost2010PropOp32
 70
     1
102
RTVSPost2010Prop33
280
     0
102
RTVSPost2010PropOp33
 70
     1
102
RTVSPost2010Prop34
280
     0
102
RTVSPost2010PropOp34
 70
     1
102
RTVSPost2010Prop35
280
     0
102
RTVSPost2010PropOp35
 70
     1
102
RTVSPost2010Prop36
280
     0
102
RTVSPost2010PropOp36
 70
     1
102
RTVSPost2010Prop37
 90
       50
102
RTVSPost2010PropOp37
 70
     1
102
RTVSPost2010Prop38
140
0.0
102
RTVSPost2010PropOp38
 70
     1
102
RTVSPost2010Prop39
140
1.0
102
RTVSPost2010PropOp39
 70
     1
102
RTVSPost2010Prop40
 90
        0
102
RTVSPost2010PropOp40
 70
     1
102
RTVSPost2010Prop41ColorIndex
 90
       18
102
RTVSPost2010Prop41ColorRGB
 90
        0
102
RTVSPost2010PropOp41
 70
     1
102
RTVSPost2010Prop42
 90
       50
102
RTVSPost2010PropOp42
 70
     1
102
RTVSPost2010Prop43
 90
        3
102
RTVSPost2010PropOp43
 70
     1
102
RTVSPost2010Prop44ColorIndex
 90
        5
102
RTVSPost2010Prop44ColorRGB
 90
      255
102
RTVSPost2010PropOp44
 70
     1
102
RTVSPost2010Prop45
280
     0
102
RTVSPost2010PropOp45
 70
     1
102
RTVSPost2010Prop46
 90
       50
102
RTVSPost2010PropOp46
 70
     1
102
RTVSPost2010Prop47
 90
       50
102
RTVSPost2010PropOp47
 70
     1
102
RTVSPost2010Prop48
 90
       50
102
RTVSPost2010PropOp48
 70
     1
102
RTVSPost2010Prop49
280
     0
102
RTVSPost2010PropOp49
 70
     1
102
RTVSPost2010Prop50
 90
       50
102
RTVSPost2010PropOp50
 70
     1
102
RTVSPost2010Prop51ColorIndex
 90
      256
102
RTVSPost2010Prop51ColorRGB
 90
-16777216
102
RTVSPost2010PropOp51
 70
     0
102
RTVSPost2010Prop52
140
1.0
102
RTVSPost2010PropOp52
 70
     0
102
RTVSPost2010Prop53
 90
        2
102
RTVSPost2010PropOp53
 70
     1
102
RTVSPost2010Prop54
  1
strokes_ogs.tif
102
RTVSPost2010PropOp54
 70
     1
102
RTVSPost2010Prop55
280
     0
102
RTVSPost2010PropOp55
 70
     1
102
RTVSPost2010Prop56
140
1.0
102
RTVSPost2010PropOp56
 70
     1
102
RTVSPost2010Prop57
140
1.0
102
RTVSPost2010PropOp57
 70
     1
  0
XRECORD
  5
2AD
102
{ACAD_REACTORS
330
2AC
102
}
330
2AC
100
AcDbXrecord
280
     1
102
RTVSPropertyOp0
 70
     1
102
RTVSPropertyOp1
 70
     1
102
RTVSPropertyOp2
 70
     1
102
RTVSPropertyOp3
 70
     1
102
RTVSPropertyOp4
 70
     1
102
RTVSPropertyOp5
 70
     1
102
RTVSPropertyOp6
 70
     1
102
RTVSPropertyOp7
 70
     1
102
RTVSPropertyOp8
 70
     1
102
RTVSPropertyOp9
 70
     1
102
RTVSPropertyOp10
 70
     1
102
RTVSPropertyOp11
 70
     1
102
RTVSPropertyOp12
 70
     1
102
RTVSPropertyOp13
 70
     1
102
RTVSPropertyOp14
 70
     1
102
RTVSPropertyOp15
 70
     1
102
RTVSPropertyOp16
 70
     1
102
RTVSPropertyOp17
 70
     1
102
RTVSPropertyOp18
 70
     1
102
RTVSPropertyOp19
 70
     1
102
RTVSPropertyOp20
 70
     1
102
RTVSPropertyOp21
 70
     1
102
RTVSPropertyOp22
 70
     1
102
RTVSPropertyOp23
 70
     1
102
RTVSPropertyOp24
 70
     1
102
RTVSPropertyOp25
 70
     1
102
RTVSPropertyOp26
 70
     1
102
RTVSPropertyOp27
 70
     1
102
RTVSPropertyOp28
 70
     1
102
RTVSPropertyOp29
 70
     1
102
RTVSPropertyOp30
 70
     1
102
RTVSPropertyOp31
 70
     1
102
RTVSPropertyOp32
 70
     1
102
RTVSPropertyOp33
 70
     1
102
RTVSPropertyOp34
 70
     1
102
RTVSPropertyOp35
 70
     1
102
RTVSPropertyOp36
 70
     1
102
RTVSPropertyOp37
 70
     1
102
RTVSPropertyOp38
 70
     1
102
RTVSPropertyOp39
 70
     1
102
RTVSPropertyOp40
 70
     1
102
RTVSPropertyOp41
 70
     1
102
RTVSPropertyOp42
 70
     1
102
RTVSPropertyOp43
 70
     1
102
RTVSPropertyOp44
 70
     1
102
RTVSPropertyOp45
 70
     1
102
RTVSPropertyOp46
 70
     1
102
RTVSPropertyOp47
 70
     1
102
RTVSPropertyOp48
 70
     1
102
RTVSPropertyOp49
 70
     1
102
RTVSPropertyOp50
 70
     1
102
RTVSPropertyOp51
 70
     0
102
RTVSPropertyOp52
 70
     0
102
RTVSPropertyOp53
 70
     1
102
RTVSPropertyOp54
 70
     1
102
RTVSPropertyOp55
 70
     1
102
RTVSPropertyOp56
 70
     1
102
RTVSPropertyOp57
 70
     1
102
RTVSPost2010Prop28
280
     0
102
RTVSPost2010PropOp28
 70
     1
102
RTVSPost2010Prop29
280
     1
102
RTVSPost2010PropOp29
 70
     1
102
RTVSPost2010Prop30
280
     1
102
RTVSPost2010PropOp30
 70
     1
102
RTVSPost2010Prop31
280
     0
102
RTVSPost2010PropOp31
 70
     1
102
RTVSPost2010Prop32
280
     0
102
RTVSPost2010PropOp32
 70
     1
102
RTVSPost2010Prop33
280
     0
102
RTVSPost2010PropOp33
 70
     1
102
RTVSPost2010Prop34
280
     0
102
RTVSPost2010PropOp34
 70
     1
102
RTVSPost2010Prop35
280
     0
102
RTVSPost2010PropOp35
 70
     1
102
RTVSPost2010Prop36
280
     0
102
RTVSPost2010PropOp36
 70
     1
102
RTVSPost2010Prop37
 90
       50
102
RTVSPost2010PropOp37
 70
     1
102
RTVSPost2010Prop38
140
0.0
102
RTVSPost2010PropOp38
 70
     1
102
RTVSPost2010Prop39
140
1.0
102
RTVSPost2010PropOp39
 70
     1
102
RTVSPost2010Prop40
 90
        0
102
RTVSPost2010PropOp40
 70
     1
102
RTVSPost2010Prop41ColorIndex
 90
       18
102
RTVSPost2010Prop41ColorRGB
 90
        0
102
RTVSPost2010PropOp41
 70
     1
102
RTVSPost2010Prop42
 90
       50
102
RTVSPost2010PropOp42
 70
     1
102
RTVSPost2010Prop43
 90
        3
102
RTVSPost2010PropOp43
 70
     1
102
RTVSPost2010Prop44ColorIndex
 90
        5
102
RTVSPost2010Prop44ColorRGB
 90
      255
102
RTVSPost2010PropOp44
 70
     1
102
RTVSPost2010Prop45
280
     0
102
RTVSPost2010PropOp45
 70
     1
102
RTVSPost2010Prop46
 90
       50
102
RTVSPost2010PropOp46
 70
     1
102
RTVSPost2010Prop47
 90
       50
102
RTVSPost2010PropOp47
 70
     1
102
RTVSPost2010Prop48
 90
       50
102
RTVSPost2010PropOp48
 70
     1
102
RTVSPost2010Prop49
280
     0
102
RTVSPost2010PropOp49
 70
     1
102
RTVSPost2010Prop50
 90
       50
102
RTVSPost2010PropOp50
 70
     1
102
RTVSPost2010Prop51ColorIndex
 90
      256
102
RTVSPost2010Prop51ColorRGB
 90
-16777216
102
RTVSPost2010PropOp51
 70
     0
102
RTVSPost2010Prop52
140
1.0
102
RTVSPost2010PropOp52
 70
     0
102
RTVSPost2010Prop53
 90
        2
102
RTVSPost2010PropOp53
 70
     1
102
RTVSPost2010Prop54
  1
strokes_ogs.tif
102
RTVSPost2010PropOp54
 70
     1
102
RTVSPost2010Prop55
280
     0
102
RTVSPost2010PropOp55
 70
     1
102
RTVSPost2010Prop56
140
1.0
102
RTVSPost2010PropOp56
 70
     1
102
RTVSPost2010Prop57
140
1.0
102
RTVSPost2010PropOp57
 70
     1
  0
XRECORD
  5
2AF
102
{ACAD_REACTORS
330
2AE
102
}
330
2AE
100
AcDbXrecord
280
     1
102
RTVSPropertyOp0
 70
     1
102
RTVSPropertyOp1
 70
     1
102
RTVSPropertyOp2
 70
     1
102
RTVSPropertyOp3
 70
     1
102
RTVSPropertyOp4
 70
     1
102
RTVSPropertyOp5
 70
     1
102
RTVSPropertyOp6
 70
     1
102
RTVSPropertyOp7
 70
     1
102
RTVSPropertyOp8
 70
     1
102
RTVSPropertyOp9
 70
     1
102
RTVSPropertyOp10
 70
     1
102
RTVSPropertyOp11
 70
     1
102
RTVSPropertyOp12
 70
     1
102
RTVSPropertyOp13
 70
     1
102
RTVSPropertyOp14
 70
     1
102
RTVSPropertyOp15
 70
     1
102
RTVSPropertyOp16
 70
     1
102
RTVSPropertyOp17
 70
     1
102
RTVSPropertyOp18
 70
     1
102
RTVSPropertyOp19
 70
     1
102
RTVSPropertyOp20
 70
     1
102
RTVSPropertyOp21
 70
     1
102
RTVSPropertyOp22
 70
     1
102
RTVSPropertyOp23
 70
     1
102
RTVSPropertyOp24
 70
     1
102
RTVSPropertyOp25
 70
     1
102
RTVSPropertyOp26
 70
     1
102
RTVSPropertyOp27
 70
     1
102
RTVSPropertyOp28
 70
     1
102
RTVSPropertyOp29
 70
     1
102
RTVSPropertyOp30
 70
     1
102
RTVSPropertyOp31
 70
     1
102
RTVSPropertyOp32
 70
     1
102
RTVSPropertyOp33
 70
     1
102
RTVSPropertyOp34
 70
     1
102
RTVSPropertyOp35
 70
     1
102
RTVSPropertyOp36
 70
     1
102
RTVSPropertyOp37
 70
     1
102
RTVSPropertyOp38
 70
     1
102
RTVSPropertyOp39
 70
     1
102
RTVSPropertyOp40
 70
     1
102
RTVSPropertyOp41
 70
     1
102
RTVSPropertyOp42
 70
     1
102
RTVSPropertyOp43
 70
     1
102
RTVSPropertyOp44
 70
     1
102
RTVSPropertyOp45
 70
     1
102
RTVSPropertyOp46
 70
     1
102
RTVSPropertyOp47
 70
     1
102
RTVSPropertyOp48
 70
     1
102
RTVSPropertyOp49
 70
     1
102
RTVSPropertyOp50
 70
     1
102
RTVSPropertyOp51
 70
     0
102
RTVSPropertyOp52
 70
     0
102
RTVSPropertyOp53
 70
     1
102
RTVSPropertyOp54
 70
     1
102
RTVSPropertyOp55
 70
     1
102
RTVSPropertyOp56
 70
     1
102
RTVSPropertyOp57
 70
     1
102
RTVSPost2010Prop28
280
     0
102
RTVSPost2010PropOp28
 70
     1
102
RTVSPost2010Prop29
280
     1
102
RTVSPost2010PropOp29
 70
     1
102
RTVSPost2010Prop30
280
     1
102
RTVSPost2010PropOp30
 70
     1
102
RTVSPost2010Prop31
280
     0
102
RTVSPost2010PropOp31
 70
     1
102
RTVSPost2010Prop32
280
     0
102
RTVSPost2010PropOp32
 70
     1
102
RTVSPost2010Prop33
280
     0
102
RTVSPost2010PropOp33
 70
     1
102
RTVSPost2010Prop34
280
     0
102
RTVSPost2010PropOp34
 70
     1
102
RTVSPost2010Prop35
280
     0
102
RTVSPost2010PropOp35
 70
     1
102
RTVSPost2010Prop36
280
     0
102
RTVSPost2010PropOp36
 70
     1
102
RTVSPost2010Prop37
 90
       50
102
RTVSPost2010PropOp37
 70
     1
102
RTVSPost2010Prop38
140
0.0
102
RTVSPost2010PropOp38
 70
     1
102
RTVSPost2010Prop39
140
1.0
102
RTVSPost2010PropOp39
 70
     1
102
RTVSPost2010Prop40
 90
        0
102
RTVSPost2010PropOp40
 70
     1
102
RTVSPost2010Prop41ColorIndex
 90
       18
102
RTVSPost2010Prop41ColorRGB
 90
        0
102
RTVSPost2010PropOp41
 70
     1
102
RTVSPost2010Prop42
 90
       50
102
RTVSPost2010PropOp42
 70
     1
102
RTVSPost2010Prop43
 90
        3
102
RTVSPost2010PropOp43
 70
     1
102
RTVSPost2010Prop44ColorIndex
 90
        5
102
RTVSPost2010Prop44ColorRGB
 90
      255
102
RTVSPost2010PropOp44
 70
     1
102
RTVSPost2010Prop45
280
     0
102
RTVSPost2010PropOp45
 70
     1
102
RTVSPost2010Prop46
 90
       50
102
RTVSPost2010PropOp46
 70
     1
102
RTVSPost2010Prop47
 90
       50
102
RTVSPost2010PropOp47
 70
     1
102
RTVSPost2010Prop48
 90
       50
102
RTVSPost2010PropOp48
 70
     1
102
RTVSPost2010Prop49
280
     0
102
RTVSPost2010PropOp49
 70
     1
102
RTVSPost2010Prop50
 90
       50
102
RTVSPost2010PropOp50
 70
     1
102
RTVSPost2010Prop51ColorIndex
 90
      256
102
RTVSPost2010Prop51ColorRGB
 90
-16777216
102
RTVSPost2010PropOp51
 70
     0
102
RTVSPost2010Prop52
140
1.0
102
RTVSPost2010PropOp52
 70
     0
102
RTVSPost2010Prop53
 90
        2
102
RTVSPost2010PropOp53
 70
     1
102
RTVSPost2010Prop54
  1
strokes_ogs.tif
102
RTVSPost2010PropOp54
 70
     1
102
RTVSPost2010Prop55
280
     0
102
RTVSPost2010PropOp55
 70
     1
102
RTVSPost2010Prop56
140
1.0
102
RTVSPost2010PropOp56
 70
     1
102
RTVSPost2010Prop57
140
1.0
102
RTVSPost2010PropOp57
 70
     1
  0
XRECORD
  5
2B1
102
{ACAD_REACTORS
330
2B0
102
}
330
2B0
100
AcDbXrecord
280
     1
102
RTVSPropertyOp0
 70
     1
102
RTVSPropertyOp1
 70
     1
102
RTVSPropertyOp2
 70
     1
102
RTVSPropertyOp3
 70
     1
102
RTVSPropertyOp4
 70
     1
102
RTVSPropertyOp5
 70
     1
102
RTVSPropertyOp6
 70
     1
102
RTVSPropertyOp7
 70
     1
102
RTVSPropertyOp8
 70
     1
102
RTVSPropertyOp9
 70
     1
102
RTVSPropertyOp10
 70
     1
102
RTVSPropertyOp11
 70
     1
102
RTVSPropertyOp12
 70
     1
102
RTVSPropertyOp13
 70
     1
102
RTVSPropertyOp14
 70
     1
102
RTVSPropertyOp15
 70
     1
102
RTVSPropertyOp16
 70
     1
102
RTVSPropertyOp17
 70
     1
102
RTVSPropertyOp18
 70
     1
102
RTVSPropertyOp19
 70
     1
102
RTVSPropertyOp20
 70
     1
102
RTVSPropertyOp21
 70
     1
102
RTVSPropertyOp22
 70
     1
102
RTVSPropertyOp23
 70
     1
102
RTVSPropertyOp24
 70
     1
102
RTVSPropertyOp25
 70
     1
102
RTVSPropertyOp26
 70
     1
102
RTVSPropertyOp27
 70
     1
102
RTVSPropertyOp28
 70
     1
102
RTVSPropertyOp29
 70
     1
102
RTVSPropertyOp30
 70
     1
102
RTVSPropertyOp31
 70
     1
102
RTVSPropertyOp32
 70
     1
102
RTVSPropertyOp33
 70
     1
102
RTVSPropertyOp34
 70
     1
102
RTVSPropertyOp35
 70
     1
102
RTVSPropertyOp36
 70
     1
102
RTVSPropertyOp37
 70
     1
102
RTVSPropertyOp38
 70
     1
102
RTVSPropertyOp39
 70
     1
102
RTVSPropertyOp40
 70
     1
102
RTVSPropertyOp41
 70
     1
102
RTVSPropertyOp42
 70
     1
102
RTVSPropertyOp43
 70
     1
102
RTVSPropertyOp44
 70
     1
102
RTVSPropertyOp45
 70
     1
102
RTVSPropertyOp46
 70
     1
102
RTVSPropertyOp47
 70
     1
102
RTVSPropertyOp48
 70
     1
102
RTVSPropertyOp49
 70
     1
102
RTVSPropertyOp50
 70
     1
102
RTVSPropertyOp51
 70
     0
102
RTVSPropertyOp52
 70
     0
102
RTVSPropertyOp53
 70
     1
102
RTVSPropertyOp54
 70
     1
102
RTVSPropertyOp55
 70
     1
102
RTVSPropertyOp56
 70
     1
102
RTVSPropertyOp57
 70
     1
102
RTVSPost2010Prop28
280
     0
102
RTVSPost2010PropOp28
 70
     1
102
RTVSPost2010Prop29
280
     1
102
RTVSPost2010PropOp29
 70
     1
102
RTVSPost2010Prop30
280
     1
102
RTVSPost2010PropOp30
 70
     1
102
RTVSPost2010Prop31
280
     0
102
RTVSPost2010PropOp31
 70
     1
102
RTVSPost2010Prop32
280
     0
102
RTVSPost2010PropOp32
 70
     1
102
RTVSPost2010Prop33
280
     0
102
RTVSPost2010PropOp33
 70
     1
102
RTVSPost2010Prop34
280
     0
102
RTVSPost2010PropOp34
 70
     1
102
RTVSPost2010Prop35
280
     0
102
RTVSPost2010PropOp35
 70
     1
102
RTVSPost2010Prop36
280
     0
102
RTVSPost2010PropOp36
 70
     1
102
RTVSPost2010Prop37
 90
       50
102
RTVSPost2010PropOp37
 70
     1
102
RTVSPost2010Prop38
140
0.0
102
RTVSPost2010PropOp38
 70
     1
102
RTVSPost2010Prop39
140
1.0
102
RTVSPost2010PropOp39
 70
     1
102
RTVSPost2010Prop40
 90
        0
102
RTVSPost2010PropOp40
 70
     1
102
RTVSPost2010Prop41ColorIndex
 90
       18
102
RTVSPost2010Prop41ColorRGB
 90
        0
102
RTVSPost2010PropOp41
 70
     1
102
RTVSPost2010Prop42
 90
       50
102
RTVSPost2010PropOp42
 70
     1
102
RTVSPost2010Prop43
 90
        3
102
RTVSPost2010PropOp43
 70
     1
102
RTVSPost2010Prop44ColorIndex
 90
        5
102
RTVSPost2010Prop44ColorRGB
 90
      255
102
RTVSPost2010PropOp44
 70
     1
102
RTVSPost2010Prop45
280
     0
102
RTVSPost2010PropOp45
 70
     1
102
RTVSPost2010Prop46
 90
       50
102
RTVSPost2010PropOp46
 70
     1
102
RTVSPost2010Prop47
 90
       50
102
RTVSPost2010PropOp47
 70
     1
102
RTVSPost2010Prop48
 90
       50
102
RTVSPost2010PropOp48
 70
     1
102
RTVSPost2010Prop49
280
     0
102
RTVSPost2010PropOp49
 70
     1
102
RTVSPost2010Prop50
 90
       50
102
RTVSPost2010PropOp50
 70
     1
102
RTVSPost2010Prop51ColorIndex
 90
      256
102
RTVSPost2010Prop51ColorRGB
 90
-16777216
102
RTVSPost2010PropOp51
 70
     0
102
RTVSPost2010Prop52
140
1.0
102
RTVSPost2010PropOp52
 70
     0
102
RTVSPost2010Prop53
 90
        2
102
RTVSPost2010PropOp53
 70
     1
102
RTVSPost2010Prop54
  1
strokes_ogs.tif
102
RTVSPost2010PropOp54
 70
     1
102
RTVSPost2010Prop55
280
     0
102
RTVSPost2010PropOp55
 70
     1
102
RTVSPost2010Prop56
140
1.0
102
RTVSPost2010PropOp56
 70
     1
102
RTVSPost2010Prop57
140
1.0
102
RTVSPost2010PropOp57
 70
     1
  0
XRECORD
  5
2B3
102
{ACAD_REACTORS
330
2B2
102
}
330
2B2
100
AcDbXrecord
280
     1
102
RTVSPropertyOp0
 70
     0
102
RTVSPropertyOp1
 70
     0
102
RTVSPropertyOp2
 70
     0
102
RTVSPropertyOp3
 70
     0
102
RTVSPropertyOp4
 70
     0
102
RTVSPropertyOp5
 70
     0
102
RTVSPropertyOp6
 70
     0
102
RTVSPropertyOp7
 70
     0
102
RTVSPropertyOp8
 70
     0
102
RTVSPropertyOp9
 70
     0
102
RTVSPropertyOp10
 70
     0
102
RTVSPropertyOp11
 70
     0
102
RTVSPropertyOp12
 70
     0
102
RTVSPropertyOp13
 70
     0
102
RTVSPropertyOp14
 70
     2
102
RTVSPropertyOp15
 70
     0
102
RTVSPropertyOp16
 70
     0
102
RTVSPropertyOp17
 70
     0
102
RTVSPropertyOp18
 70
     0
102
RTVSPropertyOp19
 70
     0
102
RTVSPropertyOp20
 70
     0
102
RTVSPropertyOp21
 70
     0
102
RTVSPropertyOp22
 70
     0
102
RTVSPropertyOp23
 70
     0
102
RTVSPropertyOp24
 70
     0
102
RTVSPropertyOp25
 70
     0
102
RTVSPropertyOp26
 70
     0
102
RTVSPropertyOp27
 70
     0
102
RTVSPropertyOp28
 70
     0
102
RTVSPropertyOp29
 70
     0
102
RTVSPropertyOp30
 70
     0
102
RTVSPropertyOp31
 70
     0
102
RTVSPropertyOp32
 70
     0
102
RTVSPropertyOp33
 70
     0
102
RTVSPropertyOp34
 70
     0
102
RTVSPropertyOp35
 70
     0
102
RTVSPropertyOp36
 70
     0
102
RTVSPropertyOp37
 70
     0
102
RTVSPropertyOp38
 70
     0
102
RTVSPropertyOp39
 70
     0
102
RTVSPropertyOp40
 70
     0
102
RTVSPropertyOp41
 70
     0
102
RTVSPropertyOp42
 70
     0
102
RTVSPropertyOp43
 70
     0
102
RTVSPropertyOp44
 70
     0
102
RTVSPropertyOp45
 70
     0
102
RTVSPropertyOp46
 70
     0
102
RTVSPropertyOp47
 70
     0
102
RTVSPropertyOp48
 70
     0
102
RTVSPropertyOp49
 70
     0
102
RTVSPropertyOp50
 70
     0
102
RTVSPropertyOp51
 70
     0
102
RTVSPropertyOp52
 70
     0
102
RTVSPropertyOp53
 70
     0
102
RTVSPropertyOp54
 70
     0
102
RTVSPropertyOp55
 70
     0
102
RTVSPropertyOp56
 70
     0
102
RTVSPropertyOp57
 70
     0
102
RTVSPost2010Prop28
280
     0
102
RTVSPost2010PropOp28
 70
     0
102
RTVSPost2010Prop29
280
     1
102
RTVSPost2010PropOp29
 70
     0
102
RTVSPost2010Prop30
280
     1
102
RTVSPost2010PropOp30
 70
     0
102
RTVSPost2010Prop31
280
     0
102
RTVSPost2010PropOp31
 70
     0
102
RTVSPost2010Prop32
280
     0
102
RTVSPost2010PropOp32
 70
     0
102
RTVSPost2010Prop33
280
     0
102
RTVSPost2010PropOp33
 70
     0
102
RTVSPost2010Prop34
280
     0
102
RTVSPost2010PropOp34
 70
     0
102
RTVSPost2010Prop35
280
     0
102
RTVSPost2010PropOp35
 70
     0
102
RTVSPost2010Prop36
280
     0
102
RTVSPost2010PropOp36
 70
     0
102
RTVSPost2010Prop37
 90
       50
102
RTVSPost2010PropOp37
 70
     0
102
RTVSPost2010Prop38
140
0.0
102
RTVSPost2010PropOp38
 70
     0
102
RTVSPost2010Prop39
140
1.0
102
RTVSPost2010PropOp39
 70
     0
102
RTVSPost2010Prop40
 90
        0
102
RTVSPost2010PropOp40
 70
     0
102
RTVSPost2010Prop41ColorIndex
 90
       18
102
RTVSPost2010Prop41ColorRGB
 90
        0
102
RTVSPost2010PropOp41
 70
     0
102
RTVSPost2010Prop42
 90
       50
102
RTVSPost2010PropOp42
 70
     0
102
RTVSPost2010Prop43
 90
        3
102
RTVSPost2010PropOp43
 70
     0
102
RTVSPost2010Prop44ColorIndex
 90
        5
102
RTVSPost2010Prop44ColorRGB
 90
      255
102
RTVSPost2010PropOp44
 70
     0
102
RTVSPost2010Prop45
280
     0
102
RTVSPost2010PropOp45
 70
     0
102
RTVSPost2010Prop46
 90
       50
102
RTVSPost2010PropOp46
 70
     0
102
RTVSPost2010Prop47
 90
       50
102
RTVSPost2010PropOp47
 70
     0
102
RTVSPost2010Prop48
 90
       50
102
RTVSPost2010PropOp48
 70
     0
102
RTVSPost2010Prop49
280
     0
102
RTVSPost2010PropOp49
 70
     0
102
RTVSPost2010Prop50
 90
       50
102
RTVSPost2010PropOp50
 70
     0
102
RTVSPost2010Prop51ColorIndex
 90
      256
102
RTVSPost2010Prop51ColorRGB
 90
-16777216
102
RTVSPost2010PropOp51
 70
     0
102
RTVSPost2010Prop52
140
1.0
102
RTVSPost2010PropOp52
 70
     0
102
RTVSPost2010Prop53
 90
        2
102
RTVSPost2010PropOp53
 70
     0
102
RTVSPost2010Prop54
  1
strokes_ogs.tif
102
RTVSPost2010PropOp54
 70
     0
102
RTVSPost2010Prop55
280
     0
102
RTVSPost2010PropOp55
 70
     0
102
RTVSPost2010Prop56
140
1.0
102
RTVSPost2010PropOp56
 70
     0
102
RTVSPost2010Prop57
140
1.0
102
RTVSPost2010PropOp57
 70
     0
  0
XRECORD
  5
2B5
102
{ACAD_REACTORS
330
2B4
102
}
330
2B4
100
AcDbXrecord
280
     1
102
RTVSPropertyOp0
 70
     1
102
RTVSPropertyOp1
 70
     1
102
RTVSPropertyOp2
 70
     1
102
RTVSPropertyOp3
 70
     1
102
RTVSPropertyOp4
 70
     1
102
RTVSPropertyOp5
 70
     1
102
RTVSPropertyOp6
 70
     1
102
RTVSPropertyOp7
 70
     1
102
RTVSPropertyOp8
 70
     1
102
RTVSPropertyOp9
 70
     1
102
RTVSPropertyOp10
 70
     1
102
RTVSPropertyOp11
 70
     1
102
RTVSPropertyOp12
 70
     1
102
RTVSPropertyOp13
 70
     1
102
RTVSPropertyOp14
 70
     1
102
RTVSPropertyOp15
 70
     1
102
RTVSPropertyOp16
 70
     1
102
RTVSPropertyOp17
 70
     1
102
RTVSPropertyOp18
 70
     1
102
RTVSPropertyOp19
 70
     1
102
RTVSPropertyOp20
 70
     1
102
RTVSPropertyOp21
 70
     1
102
RTVSPropertyOp22
 70
     1
102
RTVSPropertyOp23
 70
     1
102
RTVSPropertyOp24
 70
     1
102
RTVSPropertyOp25
 70
     1
102
RTVSPropertyOp26
 70
     1
102
RTVSPropertyOp27
 70
     1
102
RTVSPropertyOp28
 70
     1
102
RTVSPropertyOp29
 70
     1
102
RTVSPropertyOp30
 70
     1
102
RTVSPropertyOp31
 70
     1
102
RTVSPropertyOp32
 70
     1
102
RTVSPropertyOp33
 70
     1
102
RTVSPropertyOp34
 70
     1
102
RTVSPropertyOp35
 70
     1
102
RTVSPropertyOp36
 70
     1
102
RTVSPropertyOp37
 70
     1
102
RTVSPropertyOp38
 70
     1
102
RTVSPropertyOp39
 70
     1
102
RTVSPropertyOp40
 70
     1
102
RTVSPropertyOp41
 70
     1
102
RTVSPropertyOp42
 70
     1
102
RTVSPropertyOp43
 70
     1
102
RTVSPropertyOp44
 70
     1
102
RTVSPropertyOp45
 70
     1
102
RTVSPropertyOp46
 70
     1
102
RTVSPropertyOp47
 70
     1
102
RTVSPropertyOp48
 70
     1
102
RTVSPropertyOp49
 70
     1
102
RTVSPropertyOp50
 70
     1
102
RTVSPropertyOp51
 70
     0
102
RTVSPropertyOp52
 70
     0
102
RTVSPropertyOp53
 70
     1
102
RTVSPropertyOp54
 70
     1
102
RTVSPropertyOp55
 70
     1
102
RTVSPropertyOp56
 70
     1
102
RTVSPropertyOp57
 70
     1
102
RTVSPost2010Prop28
280
     0
102
RTVSPost2010PropOp28
 70
     1
102
RTVSPost2010Prop29
280
     1
102
RTVSPost2010PropOp29
 70
     1
102
RTVSPost2010Prop30
280
     1
102
RTVSPost2010PropOp30
 70
     1
102
RTVSPost2010Prop31
280
     0
102
RTVSPost2010PropOp31
 70
     1
102
RTVSPost2010Prop32
280
     0
102
RTVSPost2010PropOp32
 70
     1
102
RTVSPost2010Prop33
280
     0
102
RTVSPost2010PropOp33
 70
     1
102
RTVSPost2010Prop34
280
     0
102
RTVSPost2010PropOp34
 70
     1
102
RTVSPost2010Prop35
280
     0
102
RTVSPost2010PropOp35
 70
     1
102
RTVSPost2010Prop36
280
     0
102
RTVSPost2010PropOp36
 70
     1
102
RTVSPost2010Prop37
 90
       50
102
RTVSPost2010PropOp37
 70
     1
102
RTVSPost2010Prop38
140
0.0
102
RTVSPost2010PropOp38
 70
     1
102
RTVSPost2010Prop39
140
1.0
102
RTVSPost2010PropOp39
 70
     1
102
RTVSPost2010Prop40
 90
        0
102
RTVSPost2010PropOp40
 70
     1
102
RTVSPost2010Prop41ColorIndex
 90
       18
102
RTVSPost2010Prop41ColorRGB
 90
        0
102
RTVSPost2010PropOp41
 70
     1
102
RTVSPost2010Prop42
 90
       50
102
RTVSPost2010PropOp42
 70
     1
102
RTVSPost2010Prop43
 90
        3
102
RTVSPost2010PropOp43
 70
     1
102
RTVSPost2010Prop44ColorIndex
 90
        5
102
RTVSPost2010Prop44ColorRGB
 90
      255
102
RTVSPost2010PropOp44
 70
     1
102
RTVSPost2010Prop45
280
     0
102
RTVSPost2010PropOp45
 70
     1
102
RTVSPost2010Prop46
 90
       50
102
RTVSPost2010PropOp46
 70
     1
102
RTVSPost2010Prop47
 90
       50
102
RTVSPost2010PropOp47
 70
     1
102
RTVSPost2010Prop48
 90
       50
102
RTVSPost2010PropOp48
 70
     1
102
RTVSPost2010Prop49
280
     0
102
RTVSPost2010PropOp49
 70
     1
102
RTVSPost2010Prop50
 90
       50
102
RTVSPost2010PropOp50
 70
     1
102
RTVSPost2010Prop51ColorIndex
 90
      256
102
RTVSPost2010Prop51ColorRGB
 90
-16777216
102
RTVSPost2010PropOp51
 70
     0
102
RTVSPost2010Prop52
140
1.0
102
RTVSPost2010PropOp52
 70
     0
102
RTVSPost2010Prop53
 90
        2
102
RTVSPost2010PropOp53
 70
     1
102
RTVSPost2010Prop54
  1
strokes_ogs.tif
102
RTVSPost2010PropOp54
 70
     1
102
RTVSPost2010Prop55
280
     0
102
RTVSPost2010PropOp55
 70
     1
102
RTVSPost2010Prop56
140
1.0
102
RTVSPost2010PropOp56
 70
     1
102
RTVSPost2010Prop57
140
1.0
102
RTVSPost2010PropOp57
 70
     1
  0
XRECORD
  5
2B7
102
{ACAD_REACTORS
330
2B6
102
}
330
2B6
100
AcDbXrecord
280
     1
102
RTVSPropertyOp0
 70
     0
102
RTVSPropertyOp1
 70
     0
102
RTVSPropertyOp2
 70
     0
102
RTVSPropertyOp3
 70
     0
102
RTVSPropertyOp4
 70
     0
102
RTVSPropertyOp5
 70
     0
102
RTVSPropertyOp6
 70
     0
102
RTVSPropertyOp7
 70
     0
102
RTVSPropertyOp8
 70
     0
102
RTVSPropertyOp9
 70
     0
102
RTVSPropertyOp10
 70
     0
102
RTVSPropertyOp11
 70
     0
102
RTVSPropertyOp12
 70
     0
102
RTVSPropertyOp13
 70
     0
102
RTVSPropertyOp14
 70
     2
102
RTVSPropertyOp15
 70
     0
102
RTVSPropertyOp16
 70
     0
102
RTVSPropertyOp17
 70
     0
102
RTVSPropertyOp18
 70
     0
102
RTVSPropertyOp19
 70
     0
102
RTVSPropertyOp20
 70
     0
102
RTVSPropertyOp21
 70
     0
102
RTVSPropertyOp22
 70
     0
102
RTVSPropertyOp23
 70
     0
102
RTVSPropertyOp24
 70
     0
102
RTVSPropertyOp25
 70
     0
102
RTVSPropertyOp26
 70
     0
102
RTVSPropertyOp27
 70
     0
102
RTVSPropertyOp28
 70
     0
102
RTVSPropertyOp29
 70
     0
102
RTVSPropertyOp30
 70
     0
102
RTVSPropertyOp31
 70
     0
102
RTVSPropertyOp32
 70
     0
102
RTVSPropertyOp33
 70
     0
102
RTVSPropertyOp34
 70
     0
102
RTVSPropertyOp35
 70
     0
102
RTVSPropertyOp36
 70
     0
102
RTVSPropertyOp37
 70
     0
102
RTVSPropertyOp38
 70
     0
102
RTVSPropertyOp39
 70
     0
102
RTVSPropertyOp40
 70
     0
102
RTVSPropertyOp41
 70
     0
102
RTVSPropertyOp42
 70
     0
102
RTVSPropertyOp43
 70
     0
102
RTVSPropertyOp44
 70
     0
102
RTVSPropertyOp45
 70
     0
102
RTVSPropertyOp46
 70
     0
102
RTVSPropertyOp47
 70
     0
102
RTVSPropertyOp48
 70
     0
102
RTVSPropertyOp49
 70
     0
102
RTVSPropertyOp50
 70
     0
102
RTVSPropertyOp51
 70
     0
102
RTVSPropertyOp52
 70
     0
102
RTVSPropertyOp53
 70
     0
102
RTVSPropertyOp54
 70
     0
102
RTVSPropertyOp55
 70
     0
102
RTVSPropertyOp56
 70
     0
102
RTVSPropertyOp57
 70
     0
102
RTVSPost2010Prop28
280
     0
102
RTVSPost2010PropOp28
 70
     0
102
RTVSPost2010Prop29
280
     1
102
RTVSPost2010PropOp29
 70
     0
102
RTVSPost2010Prop30
280
     1
102
RTVSPost2010PropOp30
 70
     0
102
RTVSPost2010Prop31
280
     0
102
RTVSPost2010PropOp31
 70
     0
102
RTVSPost2010Prop32
280
     0
102
RTVSPost2010PropOp32
 70
     0
102
RTVSPost2010Prop33
280
     0
102
RTVSPost2010PropOp33
 70
     0
102
RTVSPost2010Prop34
280
     0
102
RTVSPost2010PropOp34
 70
     0
102
RTVSPost2010Prop35
280
     0
102
RTVSPost2010PropOp35
 70
     0
102
RTVSPost2010Prop36
280
     0
102
RTVSPost2010PropOp36
 70
     0
102
RTVSPost2010Prop37
 90
       50
102
RTVSPost2010PropOp37
 70
     0
102
RTVSPost2010Prop38
140
0.0
102
RTVSPost2010PropOp38
 70
     0
102
RTVSPost2010Prop39
140
1.0
102
RTVSPost2010PropOp39
 70
     0
102
RTVSPost2010Prop40
 90
        0
102
RTVSPost2010PropOp40
 70
     0
102
RTVSPost2010Prop41ColorIndex
 90
       18
102
RTVSPost2010Prop41ColorRGB
 90
        0
102
RTVSPost2010PropOp41
 70
     0
102
RTVSPost2010Prop42
 90
       50
102
RTVSPost2010PropOp42
 70
     0
102
RTVSPost2010Prop43
 90
        3
102
RTVSPost2010PropOp43
 70
     0
102
RTVSPost2010Prop44ColorIndex
 90
        5
102
RTVSPost2010Prop44ColorRGB
 90
      255
102
RTVSPost2010PropOp44
 70
     0
102
RTVSPost2010Prop45
280
     0
102
RTVSPost2010PropOp45
 70
     0
102
RTVSPost2010Prop46
 90
       50
102
RTVSPost2010PropOp46
 70
     0
102
RTVSPost2010Prop47
 90
       50
102
RTVSPost2010PropOp47
 70
     0
102
RTVSPost2010Prop48
 90
       50
102
RTVSPost2010PropOp48
 70
     0
102
RTVSPost2010Prop49
280
     0
102
RTVSPost2010PropOp49
 70
     0
102
RTVSPost2010Prop50
 90
       50
102
RTVSPost2010PropOp50
 70
     0
102
RTVSPost2010Prop51ColorIndex
 90
      256
102
RTVSPost2010Prop51ColorRGB
 90
-16777216
102
RTVSPost2010PropOp51
 70
     0
102
RTVSPost2010Prop52
140
1.0
102
RTVSPost2010PropOp52
 70
     0
102
RTVSPost2010Prop53
 90
        2
102
RTVSPost2010PropOp53
 70
     0
102
RTVSPost2010Prop54
  1
strokes_ogs.tif
102
RTVSPost2010PropOp54
 70
     0
102
RTVSPost2010Prop55
280
     0
102
RTVSPost2010PropOp55
 70
     0
102
RTVSPost2010Prop56
140
1.0
102
RTVSPost2010PropOp56
 70
     0
102
RTVSPost2010Prop57
140
1.0
102
RTVSPost2010PropOp57
 70
     0
  0
XRECORD
  5
2B9
102
{ACAD_REACTORS
330
2B8
102
}
330
2B8
100
AcDbXrecord
280
     1
102
RTVSPropertyOp0
 70
     1
102
RTVSPropertyOp1
 70
     1
102
RTVSPropertyOp2
 70
     1
102
RTVSPropertyOp3
 70
     1
102
RTVSPropertyOp4
 70
     1
102
RTVSPropertyOp5
 70
     1
102
RTVSPropertyOp6
 70
     1
102
RTVSPropertyOp7
 70
     1
102
RTVSPropertyOp8
 70
     1
102
RTVSPropertyOp9
 70
     1
102
RTVSPropertyOp10
 70
     1
102
RTVSPropertyOp11
 70
     1
102
RTVSPropertyOp12
 70
     1
102
RTVSPropertyOp13
 70
     1
102
RTVSPropertyOp14
 70
     1
102
RTVSPropertyOp15
 70
     1
102
RTVSPropertyOp16
 70
     1
102
RTVSPropertyOp17
 70
     1
102
RTVSPropertyOp18
 70
     1
102
RTVSPropertyOp19
 70
     1
102
RTVSPropertyOp20
 70
     1
102
RTVSPropertyOp21
 70
     1
102
RTVSPropertyOp22
 70
     1
102
RTVSPropertyOp23
 70
     1
102
RTVSPropertyOp24
 70
     1
102
RTVSPropertyOp25
 70
     1
102
RTVSPropertyOp26
 70
     1
102
RTVSPropertyOp27
 70
     1
102
RTVSPropertyOp28
 70
     1
102
RTVSPropertyOp29
 70
     1
102
RTVSPropertyOp30
 70
     1
102
RTVSPropertyOp31
 70
     1
102
RTVSPropertyOp32
 70
     1
102
RTVSPropertyOp33
 70
     1
102
RTVSPropertyOp34
 70
     1
102
RTVSPropertyOp35
 70
     1
102
RTVSPropertyOp36
 70
     1
102
RTVSPropertyOp37
 70
     1
102
RTVSPropertyOp38
 70
     1
102
RTVSPropertyOp39
 70
     1
102
RTVSPropertyOp40
 70
     1
102
RTVSPropertyOp41
 70
     1
102
RTVSPropertyOp42
 70
     1
102
RTVSPropertyOp43
 70
     1
102
RTVSPropertyOp44
 70
     1
102
RTVSPropertyOp45
 70
     1
102
RTVSPropertyOp46
 70
     1
102
RTVSPropertyOp47
 70
     1
102
RTVSPropertyOp48
 70
     1
102
RTVSPropertyOp49
 70
     1
102
RTVSPropertyOp50
 70
     1
102
RTVSPropertyOp51
 70
     0
102
RTVSPropertyOp52
 70
     0
102
RTVSPropertyOp53
 70
     1
102
RTVSPropertyOp54
 70
     1
102
RTVSPropertyOp55
 70
     1
102
RTVSPropertyOp56
 70
     1
102
RTVSPropertyOp57
 70
     1
102
RTVSPost2010Prop28
280
     0
102
RTVSPost2010PropOp28
 70
     1
102
RTVSPost2010Prop29
280
     1
102
RTVSPost2010PropOp29
 70
     1
102
RTVSPost2010Prop30
280
     1
102
RTVSPost2010PropOp30
 70
     1
102
RTVSPost2010Prop31
280
     0
102
RTVSPost2010PropOp31
 70
     1
102
RTVSPost2010Prop32
280
     0
102
RTVSPost2010PropOp32
 70
     1
102
RTVSPost2010Prop33
280
     0
102
RTVSPost2010PropOp33
 70
     1
102
RTVSPost2010Prop34
280
     0
102
RTVSPost2010PropOp34
 70
     1
102
RTVSPost2010Prop35
280
     0
102
RTVSPost2010PropOp35
 70
     1
102
RTVSPost2010Prop36
280
     0
102
RTVSPost2010PropOp36
 70
     1
102
RTVSPost2010Prop37
 90
       50
102
RTVSPost2010PropOp37
 70
     1
102
RTVSPost2010Prop38
140
0.0
102
RTVSPost2010PropOp38
 70
     1
102
RTVSPost2010Prop39
140
1.0
102
RTVSPost2010PropOp39
 70
     1
102
RTVSPost2010Prop40
 90
        0
102
RTVSPost2010PropOp40
 70
     1
102
RTVSPost2010Prop41ColorIndex
 90
       18
102
RTVSPost2010Prop41ColorRGB
 90
        0
102
RTVSPost2010PropOp41
 70
     1
102
RTVSPost2010Prop42
 90
       50
102
RTVSPost2010PropOp42
 70
     1
102
RTVSPost2010Prop43
 90
        3
102
RTVSPost2010PropOp43
 70
     1
102
RTVSPost2010Prop44ColorIndex
 90
        5
102
RTVSPost2010Prop44ColorRGB
 90
      255
102
RTVSPost2010PropOp44
 70
     1
102
RTVSPost2010Prop45
280
     0
102
RTVSPost2010PropOp45
 70
     1
102
RTVSPost2010Prop46
 90
       50
102
RTVSPost2010PropOp46
 70
     1
102
RTVSPost2010Prop47
 90
       50
102
RTVSPost2010PropOp47
 70
     1
102
RTVSPost2010Prop48
 90
       50
102
RTVSPost2010PropOp48
 70
     1
102
RTVSPost2010Prop49
280
     0
102
RTVSPost2010PropOp49
 70
     1
102
RTVSPost2010Prop50
 90
       50
102
RTVSPost2010PropOp50
 70
     1
102
RTVSPost2010Prop51ColorIndex
 90
      256
102
RTVSPost2010Prop51ColorRGB
 90
-16777216
102
RTVSPost2010PropOp51
 70
     0
102
RTVSPost2010Prop52
140
1.0
102
RTVSPost2010PropOp52
 70
     0
102
RTVSPost2010Prop53
 90
        2
102
RTVSPost2010PropOp53
 70
     1
102
RTVSPost2010Prop54
  1
strokes_ogs.tif
102
RTVSPost2010PropOp54
 70
     1
102
RTVSPost2010Prop55
280
     0
102
RTVSPost2010PropOp55
 70
     1
102
RTVSPost2010Prop56
140
1.0
102
RTVSPost2010PropOp56
 70
     1
102
RTVSPost2010Prop57
140
1.0
102
RTVSPost2010PropOp57
 70
     1
  0
XRECORD
  5
2BB
102
{ACAD_REACTORS
330
2BA
102
}
330
2BA
100
AcDbXrecord
280
     1
102
RTVSPropertyOp0
 70
     1
102
RTVSPropertyOp1
 70
     1
102
RTVSPropertyOp2
 70
     1
102
RTVSPropertyOp3
 70
     1
102
RTVSPropertyOp4
 70
     1
102
RTVSPropertyOp5
 70
     1
102
RTVSPropertyOp6
 70
     1
102
RTVSPropertyOp7
 70
     1
102
RTVSPropertyOp8
 70
     1
102
RTVSPropertyOp9
 70
     1
102
RTVSPropertyOp10
 70
     1
102
RTVSPropertyOp11
 70
     1
102
RTVSPropertyOp12
 70
     1
102
RTVSPropertyOp13
 70
     1
102
RTVSPropertyOp14
 70
     1
102
RTVSPropertyOp15
 70
     1
102
RTVSPropertyOp16
 70
     1
102
RTVSPropertyOp17
 70
     1
102
RTVSPropertyOp18
 70
     1
102
RTVSPropertyOp19
 70
     1
102
RTVSPropertyOp20
 70
     1
102
RTVSPropertyOp21
 70
     1
102
RTVSPropertyOp22
 70
     1
102
RTVSPropertyOp23
 70
     1
102
RTVSPropertyOp24
 70
     1
102
RTVSPropertyOp25
 70
     1
102
RTVSPropertyOp26
 70
     1
102
RTVSPropertyOp27
 70
     1
102
RTVSPropertyOp28
 70
     1
102
RTVSPropertyOp29
 70
     1
102
RTVSPropertyOp30
 70
     1
102
RTVSPropertyOp31
 70
     1
102
RTVSPropertyOp32
 70
     1
102
RTVSPropertyOp33
 70
     1
102
RTVSPropertyOp34
 70
     1
102
RTVSPropertyOp35
 70
     1
102
RTVSPropertyOp36
 70
     1
102
RTVSPropertyOp37
 70
     1
102
RTVSPropertyOp38
 70
     1
102
RTVSPropertyOp39
 70
     1
102
RTVSPropertyOp40
 70
     1
102
RTVSPropertyOp41
 70
     1
102
RTVSPropertyOp42
 70
     1
102
RTVSPropertyOp43
 70
     1
102
RTVSPropertyOp44
 70
     1
102
RTVSPropertyOp45
 70
     1
102
RTVSPropertyOp46
 70
     1
102
RTVSPropertyOp47
 70
     1
102
RTVSPropertyOp48
 70
     1
102
RTVSPropertyOp49
 70
     1
102
RTVSPropertyOp50
 70
     1
102
RTVSPropertyOp51
 70
     0
102
RTVSPropertyOp52
 70
     0
102
RTVSPropertyOp53
 70
     1
102
RTVSPropertyOp54
 70
     1
102
RTVSPropertyOp55
 70
     1
102
RTVSPropertyOp56
 70
     1
102
RTVSPropertyOp57
 70
     1
102
RTVSPost2010Prop28
280
     0
102
RTVSPost2010PropOp28
 70
     1
102
RTVSPost2010Prop29
280
     1
102
RTVSPost2010PropOp29
 70
     1
102
RTVSPost2010Prop30
280
     1
102
RTVSPost2010PropOp30
 70
     1
102
RTVSPost2010Prop31
280
     0
102
RTVSPost2010PropOp31
 70
     1
102
RTVSPost2010Prop32
280
     0
102
RTVSPost2010PropOp32
 70
     1
102
RTVSPost2010Prop33
280
     0
102
RTVSPost2010PropOp33
 70
     1
102
RTVSPost2010Prop34
280
     0
102
RTVSPost2010PropOp34
 70
     1
102
RTVSPost2010Prop35
280
     0
102
RTVSPost2010PropOp35
 70
     1
102
RTVSPost2010Prop36
280
     0
102
RTVSPost2010PropOp36
 70
     1
102
RTVSPost2010Prop37
 90
       50
102
RTVSPost2010PropOp37
 70
     1
102
RTVSPost2010Prop38
140
0.0
102
RTVSPost2010PropOp38
 70
     1
102
RTVSPost2010Prop39
140
1.0
102
RTVSPost2010PropOp39
 70
     1
102
RTVSPost2010Prop40
 90
        0
102
RTVSPost2010PropOp40
 70
     1
102
RTVSPost2010Prop41ColorIndex
 90
       18
102
RTVSPost2010Prop41ColorRGB
 90
        0
102
RTVSPost2010PropOp41
 70
     1
102
RTVSPost2010Prop42
 90
       50
102
RTVSPost2010PropOp42
 70
     1
102
RTVSPost2010Prop43
 90
        3
102
RTVSPost2010PropOp43
 70
     1
102
RTVSPost2010Prop44ColorIndex
 90
        5
102
RTVSPost2010Prop44ColorRGB
 90
      255
102
RTVSPost2010PropOp44
 70
     1
102
RTVSPost2010Prop45
280
     0
102
RTVSPost2010PropOp45
 70
     1
102
RTVSPost2010Prop46
 90
       50
102
RTVSPost2010PropOp46
 70
     1
102
RTVSPost2010Prop47
 90
       50
102
RTVSPost2010PropOp47
 70
     1
102
RTVSPost2010Prop48
 90
       50
102
RTVSPost2010PropOp48
 70
     1
102
RTVSPost2010Prop49
280
     0
102
RTVSPost2010PropOp49
 70
     1
102
RTVSPost2010Prop50
 90
       50
102
RTVSPost2010PropOp50
 70
     1
102
RTVSPost2010Prop51ColorIndex
 90
      256
102
RTVSPost2010Prop51ColorRGB
 90
-16777216
102
RTVSPost2010PropOp51
 70
     0
102
RTVSPost2010Prop52
140
1.0
102
RTVSPost2010PropOp52
 70
     0
102
RTVSPost2010Prop53
 90
        2
102
RTVSPost2010PropOp53
 70
     1
102
RTVSPost2010Prop54
  1
strokes_ogs.tif
102
RTVSPost2010PropOp54
 70
     1
102
RTVSPost2010Prop55
280
     0
102
RTVSPost2010PropOp55
 70
     1
102
RTVSPost2010Prop56
140
1.0
102
RTVSPost2010PropOp56
 70
     1
102
RTVSPost2010Prop57
140
1.0
102
RTVSPost2010PropOp57
 70
     1
  0
XRECORD
  5
2BD
102
{ACAD_REACTORS
330
2BC
102
}
330
2BC
100
AcDbXrecord
280
     1
102
RTVSPropertyOp0
 70
     1
102
RTVSPropertyOp1
 70
     1
102
RTVSPropertyOp2
 70
     1
102
RTVSPropertyOp3
 70
     1
102
RTVSPropertyOp4
 70
     1
102
RTVSPropertyOp5
 70
     1
102
RTVSPropertyOp6
 70
     1
102
RTVSPropertyOp7
 70
     1
102
RTVSPropertyOp8
 70
     1
102
RTVSPropertyOp9
 70
     1
102
RTVSPropertyOp10
 70
     1
102
RTVSPropertyOp11
 70
     1
102
RTVSPropertyOp12
 70
     1
102
RTVSPropertyOp13
 70
     1
102
RTVSPropertyOp14
 70
     1
102
RTVSPropertyOp15
 70
     1
102
RTVSPropertyOp16
 70
     1
102
RTVSPropertyOp17
 70
     1
102
RTVSPropertyOp18
 70
     1
102
RTVSPropertyOp19
 70
     1
102
RTVSPropertyOp20
 70
     1
102
RTVSPropertyOp21
 70
     1
102
RTVSPropertyOp22
 70
     1
102
RTVSPropertyOp23
 70
     1
102
RTVSPropertyOp24
 70
     1
102
RTVSPropertyOp25
 70
     1
102
RTVSPropertyOp26
 70
     1
102
RTVSPropertyOp27
 70
     1
102
RTVSPropertyOp28
 70
     1
102
RTVSPropertyOp29
 70
     1
102
RTVSPropertyOp30
 70
     1
102
RTVSPropertyOp31
 70
     1
102
RTVSPropertyOp32
 70
     1
102
RTVSPropertyOp33
 70
     1
102
RTVSPropertyOp34
 70
     1
102
RTVSPropertyOp35
 70
     1
102
RTVSPropertyOp36
 70
     1
102
RTVSPropertyOp37
 70
     1
102
RTVSPropertyOp38
 70
     1
102
RTVSPropertyOp39
 70
     1
102
RTVSPropertyOp40
 70
     1
102
RTVSPropertyOp41
 70
     1
102
RTVSPropertyOp42
 70
     1
102
RTVSPropertyOp43
 70
     1
102
RTVSPropertyOp44
 70
     1
102
RTVSPropertyOp45
 70
     1
102
RTVSPropertyOp46
 70
     1
102
RTVSPropertyOp47
 70
     1
102
RTVSPropertyOp48
 70
     1
102
RTVSPropertyOp49
 70
     1
102
RTVSPropertyOp50
 70
     1
102
RTVSPropertyOp51
 70
     0
102
RTVSPropertyOp52
 70
     0
102
RTVSPropertyOp53
 70
     1
102
RTVSPropertyOp54
 70
     1
102
RTVSPropertyOp55
 70
     1
102
RTVSPropertyOp56
 70
     1
102
RTVSPropertyOp57
 70
     1
102
RTVSPost2010Prop28
280
     0
102
RTVSPost2010PropOp28
 70
     1
102
RTVSPost2010Prop29
280
     1
102
RTVSPost2010PropOp29
 70
     1
102
RTVSPost2010Prop30
280
     1
102
RTVSPost2010PropOp30
 70
     1
102
RTVSPost2010Prop31
280
     0
102
RTVSPost2010PropOp31
 70
     1
102
RTVSPost2010Prop32
280
     0
102
RTVSPost2010PropOp32
 70
     1
102
RTVSPost2010Prop33
280
     0
102
RTVSPost2010PropOp33
 70
     1
102
RTVSPost2010Prop34
280
     0
102
RTVSPost2010PropOp34
 70
     1
102
RTVSPost2010Prop35
280
     0
102
RTVSPost2010PropOp35
 70
     1
102
RTVSPost2010Prop36
280
     0
102
RTVSPost2010PropOp36
 70
     1
102
RTVSPost2010Prop37
 90
       50
102
RTVSPost2010PropOp37
 70
     1
102
RTVSPost2010Prop38
140
0.0
102
RTVSPost2010PropOp38
 70
     1
102
RTVSPost2010Prop39
140
1.0
102
RTVSPost2010PropOp39
 70
     1
102
RTVSPost2010Prop40
 90
        0
102
RTVSPost2010PropOp40
 70
     1
102
RTVSPost2010Prop41ColorIndex
 90
       18
102
RTVSPost2010Prop41ColorRGB
 90
        0
102
RTVSPost2010PropOp41
 70
     1
102
RTVSPost2010Prop42
 90
       50
102
RTVSPost2010PropOp42
 70
     1
102
RTVSPost2010Prop43
 90
        3
102
RTVSPost2010PropOp43
 70
     1
102
RTVSPost2010Prop44ColorIndex
 90
        5
102
RTVSPost2010Prop44ColorRGB
 90
      255
102
RTVSPost2010PropOp44
 70
     1
102
RTVSPost2010Prop45
280
     0
102
RTVSPost2010PropOp45
 70
     1
102
RTVSPost2010Prop46
 90
       50
102
RTVSPost2010PropOp46
 70
     1
102
RTVSPost2010Prop47
 90
       50
102
RTVSPost2010PropOp47
 70
     1
102
RTVSPost2010Prop48
 90
       50
102
RTVSPost2010PropOp48
 70
     1
102
RTVSPost2010Prop49
280
     0
102
RTVSPost2010PropOp49
 70
     1
102
RTVSPost2010Prop50
 90
       50
102
RTVSPost2010PropOp50
 70
     1
102
RTVSPost2010Prop51ColorIndex
 90
      256
102
RTVSPost2010Prop51ColorRGB
 90
-16777216
102
RTVSPost2010PropOp51
 70
     0
102
RTVSPost2010Prop52
140
1.0
102
RTVSPost2010PropOp52
 70
     0
102
RTVSPost2010Prop53
 90
        2
102
RTVSPost2010PropOp53
 70
     1
102
RTVSPost2010Prop54
  1
strokes_ogs.tif
102
RTVSPost2010PropOp54
 70
     1
102
RTVSPost2010Prop55
280
     0
102
RTVSPost2010PropOp55
 70
     1
102
RTVSPost2010Prop56
140
1.0
102
RTVSPost2010PropOp56
 70
     1
102
RTVSPost2010Prop57
140
1.0
102
RTVSPost2010PropOp57
 70
     1
  0
XRECORD
  5
2BF
102
{ACAD_REACTORS
330
2BE
102
}
330
2BE
100
AcDbXrecord
280
     1
102
RTVSPropertyOp0
 70
     1
102
RTVSPropertyOp1
 70
     1
102
RTVSPropertyOp2
 70
     1
102
RTVSPropertyOp3
 70
     1
102
RTVSPropertyOp4
 70
     1
102
RTVSPropertyOp5
 70
     1
102
RTVSPropertyOp6
 70
     1
102
RTVSPropertyOp7
 70
     1
102
RTVSPropertyOp8
 70
     1
102
RTVSPropertyOp9
 70
     1
102
RTVSPropertyOp10
 70
     1
102
RTVSPropertyOp11
 70
     1
102
RTVSPropertyOp12
 70
     1
102
RTVSPropertyOp13
 70
     1
102
RTVSPropertyOp14
 70
     1
102
RTVSPropertyOp15
 70
     1
102
RTVSPropertyOp16
 70
     1
102
RTVSPropertyOp17
 70
     1
102
RTVSPropertyOp18
 70
     1
102
RTVSPropertyOp19
 70
     1
102
RTVSPropertyOp20
 70
     1
102
RTVSPropertyOp21
 70
     1
102
RTVSPropertyOp22
 70
     1
102
RTVSPropertyOp23
 70
     1
102
RTVSPropertyOp24
 70
     1
102
RTVSPropertyOp25
 70
     1
102
RTVSPropertyOp26
 70
     1
102
RTVSPropertyOp27
 70
     1
102
RTVSPropertyOp28
 70
     1
102
RTVSPropertyOp29
 70
     1
102
RTVSPropertyOp30
 70
     1
102
RTVSPropertyOp31
 70
     1
102
RTVSPropertyOp32
 70
     1
102
RTVSPropertyOp33
 70
     1
102
RTVSPropertyOp34
 70
     1
102
RTVSPropertyOp35
 70
     1
102
RTVSPropertyOp36
 70
     1
102
RTVSPropertyOp37
 70
     1
102
RTVSPropertyOp38
 70
     1
102
RTVSPropertyOp39
 70
     1
102
RTVSPropertyOp40
 70
     1
102
RTVSPropertyOp41
 70
     1
102
RTVSPropertyOp42
 70
     1
102
RTVSPropertyOp43
 70
     1
102
RTVSPropertyOp44
 70
     1
102
RTVSPropertyOp45
 70
     1
102
RTVSPropertyOp46
 70
     1
102
RTVSPropertyOp47
 70
     1
102
RTVSPropertyOp48
 70
     1
102
RTVSPropertyOp49
 70
     1
102
RTVSPropertyOp50
 70
     1
102
RTVSPropertyOp51
 70
     0
102
RTVSPropertyOp52
 70
     0
102
RTVSPropertyOp53
 70
     1
102
RTVSPropertyOp54
 70
     1
102
RTVSPropertyOp55
 70
     1
102
RTVSPropertyOp56
 70
     1
102
RTVSPropertyOp57
 70
     1
102
RTVSPost2010Prop28
280
     0
102
RTVSPost2010PropOp28
 70
     1
102
RTVSPost2010Prop29
280
     1
102
RTVSPost2010PropOp29
 70
     1
102
RTVSPost2010Prop30
280
     1
102
RTVSPost2010PropOp30
 70
     1
102
RTVSPost2010Prop31
280
     0
102
RTVSPost2010PropOp31
 70
     1
102
RTVSPost2010Prop32
280
     0
102
RTVSPost2010PropOp32
 70
     1
102
RTVSPost2010Prop33
280
     0
102
RTVSPost2010PropOp33
 70
     1
102
RTVSPost2010Prop34
280
     0
102
RTVSPost2010PropOp34
 70
     1
102
RTVSPost2010Prop35
280
     0
102
RTVSPost2010PropOp35
 70
     1
102
RTVSPost2010Prop36
280
     0
102
RTVSPost2010PropOp36
 70
     1
102
RTVSPost2010Prop37
 90
       50
102
RTVSPost2010PropOp37
 70
     1
102
RTVSPost2010Prop38
140
0.0
102
RTVSPost2010PropOp38
 70
     1
102
RTVSPost2010Prop39
140
1.0
102
RTVSPost2010PropOp39
 70
     1
102
RTVSPost2010Prop40
 90
        0
102
RTVSPost2010PropOp40
 70
     1
102
RTVSPost2010Prop41ColorIndex
 90
       18
102
RTVSPost2010Prop41ColorRGB
 90
        0
102
RTVSPost2010PropOp41
 70
     1
102
RTVSPost2010Prop42
 90
       50
102
RTVSPost2010PropOp42
 70
     1
102
RTVSPost2010Prop43
 90
        3
102
RTVSPost2010PropOp43
 70
     1
102
RTVSPost2010Prop44ColorIndex
 90
        5
102
RTVSPost2010Prop44ColorRGB
 90
      255
102
RTVSPost2010PropOp44
 70
     1
102
RTVSPost2010Prop45
280
     0
102
RTVSPost2010PropOp45
 70
     1
102
RTVSPost2010Prop46
 90
       50
102
RTVSPost2010PropOp46
 70
     1
102
RTVSPost2010Prop47
 90
       50
102
RTVSPost2010PropOp47
 70
     1
102
RTVSPost2010Prop48
 90
       50
102
RTVSPost2010PropOp48
 70
     1
102
RTVSPost2010Prop49
280
     0
102
RTVSPost2010PropOp49
 70
     1
102
RTVSPost2010Prop50
 90
       50
102
RTVSPost2010PropOp50
 70
     1
102
RTVSPost2010Prop51ColorIndex
 90
      256
102
RTVSPost2010Prop51ColorRGB
 90
-16777216
102
RTVSPost2010PropOp51
 70
     0
102
RTVSPost2010Prop52
140
1.0
102
RTVSPost2010PropOp52
 70
     0
102
RTVSPost2010Prop53
 90
        2
102
RTVSPost2010PropOp53
 70
     1
102
RTVSPost2010Prop54
  1
strokes_ogs.tif
102
RTVSPost2010PropOp54
 70
     1
102
RTVSPost2010Prop55
280
     0
102
RTVSPost2010PropOp55
 70
     1
102
RTVSPost2010Prop56
140
1.0
102
RTVSPost2010PropOp56
 70
     1
102
RTVSPost2010Prop57
140
1.0
102
RTVSPost2010PropOp57
 70
     1
  0
XRECORD
  5
2C1
102
{ACAD_REACTORS
330
2C0
102
}
330
2C0
100
AcDbXrecord
280
     1
102
RTVSPropertyOp0
 70
     1
102
RTVSPropertyOp1
 70
     1
102
RTVSPropertyOp2
 70
     1
102
RTVSPropertyOp3
 70
     1
102
RTVSPropertyOp4
 70
     1
102
RTVSPropertyOp5
 70
     1
102
RTVSPropertyOp6
 70
     1
102
RTVSPropertyOp7
 70
     1
102
RTVSPropertyOp8
 70
     1
102
RTVSPropertyOp9
 70
     1
102
RTVSPropertyOp10
 70
     1
102
RTVSPropertyOp11
 70
     1
102
RTVSPropertyOp12
 70
     1
102
RTVSPropertyOp13
 70
     1
102
RTVSPropertyOp14
 70
     1
102
RTVSPropertyOp15
 70
     1
102
RTVSPropertyOp16
 70
     1
102
RTVSPropertyOp17
 70
     1
102
RTVSPropertyOp18
 70
     1
102
RTVSPropertyOp19
 70
     1
102
RTVSPropertyOp20
 70
     1
102
RTVSPropertyOp21
 70
     1
102
RTVSPropertyOp22
 70
     1
102
RTVSPropertyOp23
 70
     1
102
RTVSPropertyOp24
 70
     1
102
RTVSPropertyOp25
 70
     1
102
RTVSPropertyOp26
 70
     1
102
RTVSPropertyOp27
 70
     1
102
RTVSPropertyOp28
 70
     1
102
RTVSPropertyOp29
 70
     1
102
RTVSPropertyOp30
 70
     1
102
RTVSPropertyOp31
 70
     1
102
RTVSPropertyOp32
 70
     1
102
RTVSPropertyOp33
 70
     1
102
RTVSPropertyOp34
 70
     1
102
RTVSPropertyOp35
 70
     1
102
RTVSPropertyOp36
 70
     1
102
RTVSPropertyOp37
 70
     1
102
RTVSPropertyOp38
 70
     1
102
RTVSPropertyOp39
 70
     1
102
RTVSPropertyOp40
 70
     1
102
RTVSPropertyOp41
 70
     1
102
RTVSPropertyOp42
 70
     1
102
RTVSPropertyOp43
 70
     1
102
RTVSPropertyOp44
 70
     1
102
RTVSPropertyOp45
 70
     1
102
RTVSPropertyOp46
 70
     1
102
RTVSPropertyOp47
 70
     1
102
RTVSPropertyOp48
 70
     1
102
RTVSPropertyOp49
 70
     1
102
RTVSPropertyOp50
 70
     1
102
RTVSPropertyOp51
 70
     0
102
RTVSPropertyOp52
 70
     0
102
RTVSPropertyOp53
 70
     1
102
RTVSPropertyOp54
 70
     1
102
RTVSPropertyOp55
 70
     1
102
RTVSPropertyOp56
 70
     1
102
RTVSPropertyOp57
 70
     1
102
RTVSPost2010Prop28
280
     0
102
RTVSPost2010PropOp28
 70
     1
102
RTVSPost2010Prop29
280
     1
102
RTVSPost2010PropOp29
 70
     1
102
RTVSPost2010Prop30
280
     1
102
RTVSPost2010PropOp30
 70
     1
102
RTVSPost2010Prop31
280
     0
102
RTVSPost2010PropOp31
 70
     1
102
RTVSPost2010Prop32
280
     0
102
RTVSPost2010PropOp32
 70
     1
102
RTVSPost2010Prop33
280
     0
102
RTVSPost2010PropOp33
 70
     1
102
RTVSPost2010Prop34
280
     0
102
RTVSPost2010PropOp34
 70
     1
102
RTVSPost2010Prop35
280
     0
102
RTVSPost2010PropOp35
 70
     1
102
RTVSPost2010Prop36
280
     0
102
RTVSPost2010PropOp36
 70
     1
102
RTVSPost2010Prop37
 90
       50
102
RTVSPost2010PropOp37
 70
     1
102
RTVSPost2010Prop38
140
0.0
102
RTVSPost2010PropOp38
 70
     1
102
RTVSPost2010Prop39
140
1.0
102
RTVSPost2010PropOp39
 70
     1
102
RTVSPost2010Prop40
 90
        0
102
RTVSPost2010PropOp40
 70
     1
102
RTVSPost2010Prop41ColorIndex
 90
       18
102
RTVSPost2010Prop41ColorRGB
 90
        0
102
RTVSPost2010PropOp41
 70
     1
102
RTVSPost2010Prop42
 90
       50
102
RTVSPost2010PropOp42
 70
     1
102
RTVSPost2010Prop43
 90
        3
102
RTVSPost2010PropOp43
 70
     1
102
RTVSPost2010Prop44ColorIndex
 90
        5
102
RTVSPost2010Prop44ColorRGB
 90
      255
102
RTVSPost2010PropOp44
 70
     1
102
RTVSPost2010Prop45
280
     0
102
RTVSPost2010PropOp45
 70
     1
102
RTVSPost2010Prop46
 90
       50
102
RTVSPost2010PropOp46
 70
     1
102
RTVSPost2010Prop47
 90
       50
102
RTVSPost2010PropOp47
 70
     1
102
RTVSPost2010Prop48
 90
       50
102
RTVSPost2010PropOp48
 70
     1
102
RTVSPost2010Prop49
280
     0
102
RTVSPost2010PropOp49
 70
     1
102
RTVSPost2010Prop50
 90
       50
102
RTVSPost2010PropOp50
 70
     1
102
RTVSPost2010Prop51ColorIndex
 90
      256
102
RTVSPost2010Prop51ColorRGB
 90
-16777216
102
RTVSPost2010PropOp51
 70
     0
102
RTVSPost2010Prop52
140
1.0
102
RTVSPost2010PropOp52
 70
     0
102
RTVSPost2010Prop53
 90
        2
102
RTVSPost2010PropOp53
 70
     1
102
RTVSPost2010Prop54
  1
strokes_ogs.tif
102
RTVSPost2010PropOp54
 70
     1
102
RTVSPost2010Prop55
280
     0
102
RTVSPost2010PropOp55
 70
     1
102
RTVSPost2010Prop56
140
1.0
102
RTVSPost2010PropOp56
 70
     1
102
RTVSPost2010Prop57
140
1.0
102
RTVSPost2010PropOp57
 70
     1
  0
XRECORD
  5
2C3
102
{ACAD_REACTORS
330
2C2
102
}
330
2C2
100
AcDbXrecord
280
     1
102
RTVSPropertyOp0
 70
     1
102
RTVSPropertyOp1
 70
     1
102
RTVSPropertyOp2
 70
     1
102
RTVSPropertyOp3
 70
     1
102
RTVSPropertyOp4
 70
     1
102
RTVSPropertyOp5
 70
     1
102
RTVSPropertyOp6
 70
     1
102
RTVSPropertyOp7
 70
     1
102
RTVSPropertyOp8
 70
     1
102
RTVSPropertyOp9
 70
     1
102
RTVSPropertyOp10
 70
     1
102
RTVSPropertyOp11
 70
     1
102
RTVSPropertyOp12
 70
     1
102
RTVSPropertyOp13
 70
     1
102
RTVSPropertyOp14
 70
     1
102
RTVSPropertyOp15
 70
     1
102
RTVSPropertyOp16
 70
     1
102
RTVSPropertyOp17
 70
     1
102
RTVSPropertyOp18
 70
     1
102
RTVSPropertyOp19
 70
     1
102
RTVSPropertyOp20
 70
     1
102
RTVSPropertyOp21
 70
     1
102
RTVSPropertyOp22
 70
     1
102
RTVSPropertyOp23
 70
     1
102
RTVSPropertyOp24
 70
     1
102
RTVSPropertyOp25
 70
     1
102
RTVSPropertyOp26
 70
     1
102
RTVSPropertyOp27
 70
     1
102
RTVSPropertyOp28
 70
     1
102
RTVSPropertyOp29
 70
     1
102
RTVSPropertyOp30
 70
     1
102
RTVSPropertyOp31
 70
     1
102
RTVSPropertyOp32
 70
     1
102
RTVSPropertyOp33
 70
     1
102
RTVSPropertyOp34
 70
     1
102
RTVSPropertyOp35
 70
     1
102
RTVSPropertyOp36
 70
     1
102
RTVSPropertyOp37
 70
     1
102
RTVSPropertyOp38
 70
     1
102
RTVSPropertyOp39
 70
     1
102
RTVSPropertyOp40
 70
     1
102
RTVSPropertyOp41
 70
     1
102
RTVSPropertyOp42
 70
     1
102
RTVSPropertyOp43
 70
     1
102
RTVSPropertyOp44
 70
     1
102
RTVSPropertyOp45
 70
     1
102
RTVSPropertyOp46
 70
     1
102
RTVSPropertyOp47
 70
     1
102
RTVSPropertyOp48
 70
     1
102
RTVSPropertyOp49
 70
     1
102
RTVSPropertyOp50
 70
     1
102
RTVSPropertyOp51
 70
     0
102
RTVSPropertyOp52
 70
     0
102
RTVSPropertyOp53
 70
     1
102
RTVSPropertyOp54
 70
     1
102
RTVSPropertyOp55
 70
     1
102
RTVSPropertyOp56
 70
     1
102
RTVSPropertyOp57
 70
     1
102
RTVSPost2010Prop28
280
     0
102
RTVSPost2010PropOp28
 70
     1
102
RTVSPost2010Prop29
280
     1
102
RTVSPost2010PropOp29
 70
     1
102
RTVSPost2010Prop30
280
     1
102
RTVSPost2010PropOp30
 70
     1
102
RTVSPost2010Prop31
280
     0
102
RTVSPost2010PropOp31
 70
     1
102
RTVSPost2010Prop32
280
     0
102
RTVSPost2010PropOp32
 70
     1
102
RTVSPost2010Prop33
280
     0
102
RTVSPost2010PropOp33
 70
     1
102
RTVSPost2010Prop34
280
     0
102
RTVSPost2010PropOp34
 70
     1
102
RTVSPost2010Prop35
280
     0
102
RTVSPost2010PropOp35
 70
     1
102
RTVSPost2010Prop36
280
     0
102
RTVSPost2010PropOp36
 70
     1
102
RTVSPost2010Prop37
 90
       50
102
RTVSPost2010PropOp37
 70
     1
102
RTVSPost2010Prop38
140
0.0
102
RTVSPost2010PropOp38
 70
     1
102
RTVSPost2010Prop39
140
1.0
102
RTVSPost2010PropOp39
 70
     1
102
RTVSPost2010Prop40
 90
        0
102
RTVSPost2010PropOp40
 70
     1
102
RTVSPost2010Prop41ColorIndex
 90
       18
102
RTVSPost2010Prop41ColorRGB
 90
        0
102
RTVSPost2010PropOp41
 70
     1
102
RTVSPost2010Prop42
 90
       50
102
RTVSPost2010PropOp42
 70
     1
102
RTVSPost2010Prop43
 90
        3
102
RTVSPost2010PropOp43
 70
     1
102
RTVSPost2010Prop44ColorIndex
 90
        5
102
RTVSPost2010Prop44ColorRGB
 90
      255
102
RTVSPost2010PropOp44
 70
     1
102
RTVSPost2010Prop45
280
     0
102
RTVSPost2010PropOp45
 70
     1
102
RTVSPost2010Prop46
 90
       50
102
RTVSPost2010PropOp46
 70
     1
102
RTVSPost2010Prop47
 90
       50
102
RTVSPost2010PropOp47
 70
     1
102
RTVSPost2010Prop48
 90
       50
102
RTVSPost2010PropOp48
 70
     1
102
RTVSPost2010Prop49
280
     0
102
RTVSPost2010PropOp49
 70
     1
102
RTVSPost2010Prop50
 90
       50
102
RTVSPost2010PropOp50
 70
     1
102
RTVSPost2010Prop51ColorIndex
 90
      256
102
RTVSPost2010Prop51ColorRGB
 90
-16777216
102
RTVSPost2010PropOp51
 70
     0
102
RTVSPost2010Prop52
140
1.0
102
RTVSPost2010PropOp52
 70
     0
102
RTVSPost2010Prop53
 90
        2
102
RTVSPost2010PropOp53
 70
     1
102
RTVSPost2010Prop54
  1
strokes_ogs.tif
102
RTVSPost2010PropOp54
 70
     1
102
RTVSPost2010Prop55
280
     0
102
RTVSPost2010PropOp55
 70
     1
102
RTVSPost2010Prop56
140
1.0
102
RTVSPost2010PropOp56
 70
     1
102
RTVSPost2010Prop57
140
1.0
102
RTVSPost2010PropOp57
 70
     1
  0
XRECORD
  5
2C5
102
{ACAD_REACTORS
330
2C4
102
}
330
2C4
100
AcDbXrecord
280
     1
102
RTVSPropertyOp0
 70
     1
102
RTVSPropertyOp1
 70
     1
102
RTVSPropertyOp2
 70
     1
102
RTVSPropertyOp3
 70
     1
102
RTVSPropertyOp4
 70
     1
102
RTVSPropertyOp5
 70
     1
102
RTVSPropertyOp6
 70
     1
102
RTVSPropertyOp7
 70
     1
102
RTVSPropertyOp8
 70
     1
102
RTVSPropertyOp9
 70
     1
102
RTVSPropertyOp10
 70
     1
102
RTVSPropertyOp11
 70
     1
102
RTVSPropertyOp12
 70
     1
102
RTVSPropertyOp13
 70
     1
102
RTVSPropertyOp14
 70
     1
102
RTVSPropertyOp15
 70
     1
102
RTVSPropertyOp16
 70
     1
102
RTVSPropertyOp17
 70
     1
102
RTVSPropertyOp18
 70
     1
102
RTVSPropertyOp19
 70
     1
102
RTVSPropertyOp20
 70
     1
102
RTVSPropertyOp21
 70
     1
102
RTVSPropertyOp22
 70
     1
102
RTVSPropertyOp23
 70
     1
102
RTVSPropertyOp24
 70
     1
102
RTVSPropertyOp25
 70
     1
102
RTVSPropertyOp26
 70
     1
102
RTVSPropertyOp27
 70
     1
102
RTVSPropertyOp28
 70
     1
102
RTVSPropertyOp29
 70
     1
102
RTVSPropertyOp30
 70
     1
102
RTVSPropertyOp31
 70
     1
102
RTVSPropertyOp32
 70
     1
102
RTVSPropertyOp33
 70
     1
102
RTVSPropertyOp34
 70
     1
102
RTVSPropertyOp35
 70
     1
102
RTVSPropertyOp36
 70
     1
102
RTVSPropertyOp37
 70
     1
102
RTVSPropertyOp38
 70
     1
102
RTVSPropertyOp39
 70
     1
102
RTVSPropertyOp40
 70
     1
102
RTVSPropertyOp41
 70
     1
102
RTVSPropertyOp42
 70
     1
102
RTVSPropertyOp43
 70
     1
102
RTVSPropertyOp44
 70
     1
102
RTVSPropertyOp45
 70
     1
102
RTVSPropertyOp46
 70
     1
102
RTVSPropertyOp47
 70
     1
102
RTVSPropertyOp48
 70
     1
102
RTVSPropertyOp49
 70
     1
102
RTVSPropertyOp50
 70
     1
102
RTVSPropertyOp51
 70
     0
102
RTVSPropertyOp52
 70
     0
102
RTVSPropertyOp53
 70
     1
102
RTVSPropertyOp54
 70
     1
102
RTVSPropertyOp55
 70
     1
102
RTVSPropertyOp56
 70
     1
102
RTVSPropertyOp57
 70
     1
102
RTVSPost2010Prop28
280
     0
102
RTVSPost2010PropOp28
 70
     1
102
RTVSPost2010Prop29
280
     1
102
RTVSPost2010PropOp29
 70
     1
102
RTVSPost2010Prop30
280
     1
102
RTVSPost2010PropOp30
 70
     1
102
RTVSPost2010Prop31
280
     0
102
RTVSPost2010PropOp31
 70
     1
102
RTVSPost2010Prop32
280
     0
102
RTVSPost2010PropOp32
 70
     1
102
RTVSPost2010Prop33
280
     0
102
RTVSPost2010PropOp33
 70
     1
102
RTVSPost2010Prop34
280
     0
102
RTVSPost2010PropOp34
 70
     1
102
RTVSPost2010Prop35
280
     0
102
RTVSPost2010PropOp35
 70
     1
102
RTVSPost2010Prop36
280
     0
102
RTVSPost2010PropOp36
 70
     1
102
RTVSPost2010Prop37
 90
       50
102
RTVSPost2010PropOp37
 70
     1
102
RTVSPost2010Prop38
140
0.0
102
RTVSPost2010PropOp38
 70
     1
102
RTVSPost2010Prop39
140
1.0
102
RTVSPost2010PropOp39
 70
     1
102
RTVSPost2010Prop40
 90
        0
102
RTVSPost2010PropOp40
 70
     1
102
RTVSPost2010Prop41ColorIndex
 90
       18
102
RTVSPost2010Prop41ColorRGB
 90
        0
102
RTVSPost2010PropOp41
 70
     1
102
RTVSPost2010Prop42
 90
       50
102
RTVSPost2010PropOp42
 70
     1
102
RTVSPost2010Prop43
 90
        3
102
RTVSPost2010PropOp43
 70
     1
102
RTVSPost2010Prop44ColorIndex
 90
        5
102
RTVSPost2010Prop44ColorRGB
 90
      255
102
RTVSPost2010PropOp44
 70
     1
102
RTVSPost2010Prop45
280
     0
102
RTVSPost2010PropOp45
 70
     1
102
RTVSPost2010Prop46
 90
       50
102
RTVSPost2010PropOp46
 70
     1
102
RTVSPost2010Prop47
 90
       50
102
RTVSPost2010PropOp47
 70
     1
102
RTVSPost2010Prop48
 90
       50
102
RTVSPost2010PropOp48
 70
     1
102
RTVSPost2010Prop49
280
     0
102
RTVSPost2010PropOp49
 70
     1
102
RTVSPost2010Prop50
 90
       50
102
RTVSPost2010PropOp50
 70
     1
102
RTVSPost2010Prop51ColorIndex
 90
      256
102
RTVSPost2010Prop51ColorRGB
 90
-16777216
102
RTVSPost2010PropOp51
 70
     0
102
RTVSPost2010Prop52
140
1.0
102
RTVSPost2010PropOp52
 70
     0
102
RTVSPost2010Prop53
 90
        2
102
RTVSPost2010PropOp53
 70
     1
102
RTVSPost2010Prop54
  1
strokes_ogs.tif
102
RTVSPost2010PropOp54
 70
     1
102
RTVSPost2010Prop55
280
     0
102
RTVSPost2010PropOp55
 70
     1
102
RTVSPost2010Prop56
140
1.0
102
RTVSPost2010PropOp56
 70
     1
102
RTVSPost2010Prop57
140
1.0
102
RTVSPost2010PropOp57
 70
     1
  0
XRECORD
  5
2C7
102
{ACAD_REACTORS
330
2C6
102
}
330
2C6
100
AcDbXrecord
280
     1
102
RTVSPropertyOp0
 70
     1
102
RTVSPropertyOp1
 70
     1
102
RTVSPropertyOp2
 70
     1
102
RTVSPropertyOp3
 70
     1
102
RTVSPropertyOp4
 70
     1
102
RTVSPropertyOp5
 70
     1
102
RTVSPropertyOp6
 70
     1
102
RTVSPropertyOp7
 70
     1
102
RTVSPropertyOp8
 70
     1
102
RTVSPropertyOp9
 70
     1
102
RTVSPropertyOp10
 70
     1
102
RTVSPropertyOp11
 70
     1
102
RTVSPropertyOp12
 70
     1
102
RTVSPropertyOp13
 70
     1
102
RTVSPropertyOp14
 70
     1
102
RTVSPropertyOp15
 70
     1
102
RTVSPropertyOp16
 70
     1
102
RTVSPropertyOp17
 70
     1
102
RTVSPropertyOp18
 70
     1
102
RTVSPropertyOp19
 70
     1
102
RTVSPropertyOp20
 70
     1
102
RTVSPropertyOp21
 70
     1
102
RTVSPropertyOp22
 70
     1
102
RTVSPropertyOp23
 70
     1
102
RTVSPropertyOp24
 70
     1
102
RTVSPropertyOp25
 70
     1
102
RTVSPropertyOp26
 70
     1
102
RTVSPropertyOp27
 70
     1
102
RTVSPropertyOp28
 70
     1
102
RTVSPropertyOp29
 70
     1
102
RTVSPropertyOp30
 70
     1
102
RTVSPropertyOp31
 70
     1
102
RTVSPropertyOp32
 70
     1
102
RTVSPropertyOp33
 70
     1
102
RTVSPropertyOp34
 70
     1
102
RTVSPropertyOp35
 70
     1
102
RTVSPropertyOp36
 70
     1
102
RTVSPropertyOp37
 70
     1
102
RTVSPropertyOp38
 70
     1
102
RTVSPropertyOp39
 70
     1
102
RTVSPropertyOp40
 70
     1
102
RTVSPropertyOp41
 70
     1
102
RTVSPropertyOp42
 70
     1
102
RTVSPropertyOp43
 70
     1
102
RTVSPropertyOp44
 70
     1
102
RTVSPropertyOp45
 70
     1
102
RTVSPropertyOp46
 70
     1
102
RTVSPropertyOp47
 70
     1
102
RTVSPropertyOp48
 70
     1
102
RTVSPropertyOp49
 70
     1
102
RTVSPropertyOp50
 70
     1
102
RTVSPropertyOp51
 70
     0
102
RTVSPropertyOp52
 70
     0
102
RTVSPropertyOp53
 70
     1
102
RTVSPropertyOp54
 70
     1
102
RTVSPropertyOp55
 70
     1
102
RTVSPropertyOp56
 70
     1
102
RTVSPropertyOp57
 70
     1
102
RTVSPost2010Prop28
280
     0
102
RTVSPost2010PropOp28
 70
     1
102
RTVSPost2010Prop29
280
     1
102
RTVSPost2010PropOp29
 70
     1
102
RTVSPost2010Prop30
280
     1
102
RTVSPost2010PropOp30
 70
     1
102
RTVSPost2010Prop31
280
     0
102
RTVSPost2010PropOp31
 70
     1
102
RTVSPost2010Prop32
280
     0
102
RTVSPost2010PropOp32
 70
     1
102
RTVSPost2010Prop33
280
     0
102
RTVSPost2010PropOp33
 70
     1
102
RTVSPost2010Prop34
280
     0
102
RTVSPost2010PropOp34
 70
     1
102
RTVSPost2010Prop35
280
     0
102
RTVSPost2010PropOp35
 70
     1
102
RTVSPost2010Prop36
280
     0
102
RTVSPost2010PropOp36
 70
     1
102
RTVSPost2010Prop37
 90
       50
102
RTVSPost2010PropOp37
 70
     1
102
RTVSPost2010Prop38
140
0.0
102
RTVSPost2010PropOp38
 70
     1
102
RTVSPost2010Prop39
140
1.0
102
RTVSPost2010PropOp39
 70
     1
102
RTVSPost2010Prop40
 90
        0
102
RTVSPost2010PropOp40
 70
     1
102
RTVSPost2010Prop41ColorIndex
 90
       18
102
RTVSPost2010Prop41ColorRGB
 90
        0
102
RTVSPost2010PropOp41
 70
     1
102
RTVSPost2010Prop42
 90
       50
102
RTVSPost2010PropOp42
 70
     1
102
RTVSPost2010Prop43
 90
        3
102
RTVSPost2010PropOp43
 70
     1
102
RTVSPost2010Prop44ColorIndex
 90
        5
102
RTVSPost2010Prop44ColorRGB
 90
      255
102
RTVSPost2010PropOp44
 70
     1
102
RTVSPost2010Prop45
280
     0
102
RTVSPost2010PropOp45
 70
     1
102
RTVSPost2010Prop46
 90
       50
102
RTVSPost2010PropOp46
 70
     1
102
RTVSPost2010Prop47
 90
       50
102
RTVSPost2010PropOp47
 70
     1
102
RTVSPost2010Prop48
 90
       50
102
RTVSPost2010PropOp48
 70
     1
102
RTVSPost2010Prop49
280
     0
102
RTVSPost2010PropOp49
 70
     1
102
RTVSPost2010Prop50
 90
       50
102
RTVSPost2010PropOp50
 70
     1
102
RTVSPost2010Prop51ColorIndex
 90
      256
102
RTVSPost2010Prop51ColorRGB
 90
-16777216
102
RTVSPost2010PropOp51
 70
     0
102
RTVSPost2010Prop52
140
1.0
102
RTVSPost2010PropOp52
 70
     0
102
RTVSPost2010Prop53
 90
        2
102
RTVSPost2010PropOp53
 70
     1
102
RTVSPost2010Prop54
  1
strokes_ogs.tif
102
RTVSPost2010PropOp54
 70
     1
102
RTVSPost2010Prop55
280
     0
102
RTVSPost2010PropOp55
 70
     1
102
RTVSPost2010Prop56
140
1.0
102
RTVSPost2010PropOp56
 70
     1
102
RTVSPost2010Prop57
140
1.0
102
RTVSPost2010PropOp57
 70
     1
  0
ENDSEC
  0
EOF
